Além do Rio Azul

Voz da Verdade

Am
123
X02210
Am/G
1234
3X221X
Bb9
34
X13311
C
123
X32010
Dm
123
XX0231
E
123
022100
Em
12
022000
F
234
133211
G
123
320003
G/B
123
X20033
Tom: G
[Intro] C  G  Am
        F  G  Am
        F  G  C


E|--------------------------------
B|-------8-----8--10--------------
G|---9-------9-------------5----7-
D|--------------------------------
A|--------------------------------
E|--------------------------------

E|---------| 
B|--6----5-| 
G|---------| 
D|---------| 
A|---------| 
E|---------| 



E|--------------------------------
B|------5-------------------------
G|-----------7----5-------7-------
D|--------------------------------
A|--------------------------------
E|--------------------------------

E|---------| 
B|---------| 
G|-----5---| 
D|---5-----| 
A|---------| 
E|---------| 


  C      F    C
Além do rio azul
    F          G              C
As ruas são de ouro e de cristais
  F         G      Em        Am
Ali tudo é vida, ali tudo é paz
          F   G       C
Morte e choro, nunca mais
            F  G       C
Tristeza e dor, nunca mais

  C      F    C
Além do rio azul
    F          G              C
As ruas são de ouro e de cristais
  F         G      Em        Am
Ali tudo é vida, ali tudo é paz
          F   G       C
Morte e choro, nunca mais
            F  G       C
Tristeza e dor, nunca mais

   Bb9          F      G
Verei o grande rio da vida
Bb9 F G Claro como o cristal Bb9 F G Verei a face meu do mestre querido Am Dm G Não haverá mais noite ali C G/B Am Não haverá nenhum clamor Dm G Verei os olhos de Jesus C E E tocarei seu corpo enfim Dm G Não haverá mais noite ali C G/B Am Não haverá nenhum clamor Dm G Verei os olhos de Jesus C E E tocarei seu corpo enfim F G C G/B Am Am/G As nações andarão a sua luz F G C G/B E as portas jamais se Am Am/G fecharão F G C G/B Am A cidade é de ouro puro F De Jaspe é seu muro G C Além do rio azul C Morte e choro tristeza e dor G C Nunca mais, nunca mais C Morte e choro tristeza e dor G C Nunca mais, nunca mais C Morte e choro tristeza e dor G C Nunca mais, nunca mais C Morte e choro tristeza e dor G C Nunca mais, nunca mais C Além do rio azul F G C Além do rio azul C Além do rio azul F G C Além do rio azul
Composição: Carlos A. MoysésColaboração e revisão: Lucas Kappaundiones novaisLucas Kappaunalysson silvae mais 7

Utilizamos cookies para personalizar sua experiência. Ao acessar o site, você concorda com a nossa Política de Privacidade.