busca

Esperando Otra Vez

Airbag

Tom: A
intro:A-F#-Bm-E (con distorsion es todo) 
 
solo: 
e|-8-8h6-4-4-4-6-4-3-3-3-4-3-1-1-4-8-11-13-------- 
B|------------------------------------------------ 

e|-15-16-15-13-15-13------13---------------------- 
B|-------------------16-14---16-14-13-16-14-13---- 
G|------------------------------------------------ 

e|-----------------13-16--13-16-18/20-18/20-18-16- 
B|---------------15-----15------------------------ 
G|-15/16-16-16-13--------------------------------- 

e|-16-16-16-18-16-15-15-15-16-13-13-16-15--15-13-- 
B|---------------------------------------16------- 

e|------13----------------------------------------| 
B|-16-14--16-14-13-16-14-13-----------------------|
G|-------------------------15/16-13---------------|

A F# 
Cuando estas junto a el 
Bm A# G 
Cuando no me miras 
A F#m D E A 
Ho ho ho ho ho ho ho ho ho ho ho BIS 

Cuanto tiempo perdí 
Sentado junto a ti 
Ho ho ho ho ho ho ho ho ho ho ho 


Refrão -------------
A C# F#m Huu hoy el tiempo pasó Bm Y me dijo que vos E A Ya no regresaras
--------------------
Soy el que vive en tu ser Y por eso aquí estoy Esperando otra vez Cuanto tiempo perdí Sentado junto a ti Ho ho ho ho ho ho ho ho ho ho ho BIS Cuando estas junto a el Cuando no me miras Ho ho ho ho ho ho ho ho ho ho ho ESTRIBILLO ESTRIBILLO SOLO ESTRIBILLO X3 bueno esto es todo.Espero q le sirba chau..

Clipes