busca

Bad Guy

Billie Eilish

Tom: Gm
[Intro] Gm  C5  D5

[Primeira Parte]

  Gm
White shirt now red, my bloody nose

Sleepin', you're on your tippy toes
  C5
Creepin' around like no one knows
  D5
Think you're so criminal

  Gm
Bruises on both my knees for you

Don't say thank you or please
       C5
I do what I want when I'm wanting to
 D5
My soul so cynical

             Gm
So you're a tough guy

Like it really rough guy

Just can't get enough guy

Chest always so puffed guy
          C5
I'm that bad type

Make your mama sad type
                      D5
Make your girlfriend mad type

Might seduce your dad type

I'm the bad guy, duh

[Interlúdio]

Gm          C5     D5
   I'm the bad guy

[Segunda Parte]

Gm
I like it when you take control
                                Cm7
Even if you know that you don't own me

I'll let you play the role

D7
I'll be your animal

 Gm
My mommy likes to sing along with me

But she won't sing this song
C5
If she reads all the lyrics
        D5
She'll pity the men I know

             Gm
So you're a tough guy

Like it really rough guy

Just can't get enough guy

Chest always so puffed guy
          C5
I'm that bad type

Make your mama sad type
                      D5
Make your girlfriend mad type

Might seduce your dad type

I'm the bad guy, duh

[Interlúdio]

Gm          C5     D5
   I'm the bad guy, duh
Gm                         C5   D5
   I'm only good at bein' bad, bad

[Final]

Gm
   I like when you get mad

I guess I'm pretty glad

That you're alone

You said she's scared of me
        D
I mean, I don't see what she sees

But maybe it's 'cause 

I'm wearing your cologne

Gm
   I'm the bad guy

I'm the bad guy

Bad guy, bad guy

I'm the bad

[Ritmo Principal]

Parte 1 de 3 (2x)

   Gm
E|---x-------x---x---x----------------------|
B|---x-------x---x---x----------------------|
G|-3-x-------x-3-x-3-x----------------------|
D|-0-x-------x-0-x-0-x----------------------|
A|---x-------x---x---x----------------------|
E|-5-x-5-8-5-x-5-x-5-x-5-8-5-3p0------------|


Parte 2 de 3

   C5
E|---x-------x---x---x----------------------|
B|---x-------x---x---x----------------------|
G|-5-x-------x-5-x-5-x----------------------|
D|-5-x-------x-5-x-5-x----------------------|
A|-3-x-3-6-3-x-3-x-3-x-3-6-3-5--------------|
E|---x-------x---x---x----------------------|

Parte 3 de 3

   D5
E|---x-------x---x---x----------------------|
B|---x-------x---x---x----------------------|
G|---x-------x---x---x----------------------|
D|-0-x-----0-x-0-x-0-x---0------------------|
A|-0-x-----0-x-0-x-0-x---0------------------|
E|-0-x-0-4-0-x-0-x-0-x-0--------------------|

[Interlúdio - violão 2]

Parte 1 de 3

     Gm
E|------------------------------------------|
B|---3---3-4-3------3---3-4-3---------------|
G|-----3-------3------3-------3-------------|
D|-5--------------5-------------------------|
A|------------------------------------------|
E|------------------------------------------|

Parte 2 de 3


   C5
E|---3---3-4-3------3---3-4-3---------------|
B|-------------3--------------3-------------|
G|-5---5----------5---5---------------------|
D|------------------------------------------|
A|------------------------------------------|
E|------------------------------------------|

Parte 3 de 3

   D5
E|-5----3-----------------------------------|
B|----3---3---------------------------------|
G|-----------5-5----------------------------|
D|------------------------------------------|
A|------------------------------------------|
E|------------------------------------------|

Clipes

Cifra Club Pro

Aproveite o Cifra Club com benefícios exclusivos e sem anúncios
Cifra Club Pro
Aproveite o Cifra Club com benefícios exclusivos e sem anúncios