I Love You

Billie Eilish

A
123
X02220
A9
12
X02200
Am
123
X02210
C
123
X32010
C7M
12
X3200X
Dm
123
XX0231
Em
12
022000
F
234
133211
F7M(11+)
1234
133200
G
123
320003
Tom: G
[Intro] F7M(11+)  C7M

#1t1#     F7M(11+)
#1t2#E|-----------0------------0-----------0-----------0--------|
B|-----0------------0-----------0-----------0--------------|
G|---2-----2------2-----2-----2-----2-----2-----2-----2----|
D|-3-----3------3-----3-----3-----3-----3-----3-----3------|
A|---------------------------------------------------------|
E|---------------------------------------------------------|#/1t2##/1t1#

#2t1#    C7M
#2t2#E|-------0-----------0-----------0-------------0-----------|
B|--0----------0-----------0-------------0-----------------|
G|----0------0---0-------0---0---------0---0--------0------|
D|-----2-----------2-----------2-------------2-------------|
A|--3------3-----------3-------------3------------3--------|
E|---------------------------------------------------------|#/2t2##/2t1#

F7M(11+)
It's not true
                  C7M
Tell me I've been lied to
              F7M(11+)     
Crying isn't like you
       C7M
Oh-oh-oh
                  F7M(11+)
What the hell did I do?
                C7M
Never been the type to
                 F7M(11+)
Let someone see right through
       C7M
Oh-oh-oh

F7M(11+)
Baby won't you take it back

Say you were tryna make me laugh
G
And nothing has to change today
                              Am    A9
You didn't mean to say "I love you"
      C   A9
I love you  
             F7M(11+)   
And I don't want to
       C7M
Oh-oh-oh

#3t1#   F7M(11+)                         G
#3t2#E|--------------------------------------------0---0---1---1---3---3-|
B|------------0---0---1---1---3---3---3---3-------------------------|
G|----2---2---------------------------------------------------------|
D|--3---3---3---3---3---3---3---3-----------------------------------|
A|------------------------------------------------------------------|
E|----------------------------------3---3---3---3---3---3---3---3---|#/3t2##/3t1#

#4t1#    Am     
#4t2#E|--------------------------------------|
B|------1-----1-----1-----1-------------|
G|----2-----2-----2-----2---------------|
D|--------------------------------------|
A|--0-----0-----0-----0-----------------|
E|--------------------------------------|#/4t2##/4t1#

#5t1#     A     
#5t2#E|--------------------------------------|
B|------0-----0-----0-----0-------------|
G|----2-----2-----2-----2---------------|
D|--------------------------------------|
A|--0-----0-----0-----0-----------------|
E|--------------------------------------|#/5t2##/5t1#

#6t1#     C     
#6t2#E|--------------------------------------|
B|------1-----1-----1-----1-------------|
G|----0-----0-----0-----0---------------|
D|--------------------------------------|
A|--3-----3-----3-----3-----------------|
E|--------------------------------------|#/6t2##/6t1#

#7t1#     C*     
#7t2#E|--------------------------------------|
B|------0-----0-----0-----0-------------|
G|----0-----0-----0-----0---------------|
D|--------------------------------------|
A|--3-----3-----3-----3-----------------|
E|--------------------------------------|#/7t2##/7t1#

#8t1#     F     
#8t2#E|--------------------------------------|
B|------1-----1-----1-----1-------------|
G|----2-----2-----2-----2---------------|
D|--3-----3-----3-----3-----------------|
A|--------------------------------------|
E|--------------------------------------|#/8t2##/8t1#
#9t1#     F*     
#9t2#E|--------------------------------------|
B|------0-----0-----0-----0-------------|
G|----2-----2-----2-----2---------------|
D|--3-----3-----3----3------------------|
A|--------------------------------------|
E|--------------------------------------|#/9t2##/9t1#

#10t1#     C     
#10t2#E|-----------0------------0-------------|
B|-----1------------1-------------------|
G|---0-----0------0-----0---------------|
D|--------------------------------------|
A|-3-----3------3-----3-----------------|
E|--------------------------------------|#/10t2##/10t1#

  F7M(11+)                      C7M
Up all night on another red eye
                  F7M(11+)
I wish we never learned to fly
    C7M
I-I-I
             F7M(11+)
Maybe we should just try
                      C7M
To tell ourselves a good lie
                F7M(11+)
I didn't mean to make you cry
     C7M
I-I-I

F7M(11+)
Baby won't you take it back

Say you were tryna make me laugh
G
And nothing has to change today
                              Am    A9
You didn't mean to say "I love you"
      C   A9
I love you  
             F7M(11+)   
And I don't want to
       C7M
Oh-oh-oh

#11t1#     Dm     
#11t2#E|-----------1------------1-------------|
B|-----3------------3-------------------|
G|---2-----2------2-----2---------------|
D|-0-----0------0-----0-----------------|
A|--------------------------------------|
E|--------------------------------------|#/11t2##/11t1#

#12t1#     Em     
#12t2#E|-----------0------------0-------------|
B|-----0------------0-------------------|
G|---0-----0------0-----0---------------|
D|--------------------------------------|
A|--------------------------------------|
E|-0-----0------0-----0-----------------|#/12t2##/12t1#

#13t1#     F (2x)
#13t2#E|------------0-----------0-------------|
B|------1-----------1-------------------|
G|----2-----2-----2-----2---------------|
D|--3-----3-----3-----3-----------------|
A|--------------------------------------|
E|--------------------------------------|#/13t2##/13t1#

 Dm
The smile that you gave me
       G.                 F7M(11+)
Even when you felt like dying

F7M(11+)
We fall apart as it gets dark

I'm in your arms in central park
G
There's nothing you could do or say
G                         Am       A9
I can't escape the way, I love you
         C      A9
I don't want to
        F7M(11+)
But I love you
       C7M
Oh-oh-oh
       F7M(11+)
Oh-oh-oh
      C7M
Oh-oh-oh
       F7M(11+)
Oh-oh-oh
      C7M
Oh-oh-oh
Composição: Billie Eilish / Finneas O'ConnellColaboração e revisão: Fernanda IchiyJoel SilvaBianca NoronhaGii controle mais 1