busca

Mony Mony

Billy Idol

Album: ?
Tabber: Steph
Email: *


Intro:
    F               X4
G|-------------------|
D|*-----------------*|
A|*-----------------*|
E|--1-1-1-1-1-1-1-1--|


Verse:
    F            13X  Bb                  C       4X
G|------------------|-----------------|----------5--|
D|*----------------*|-----------------|*-----------*|
A|*----------------*|-1-1-1-1-1-1-1-1-|*--3-3-3----*|
E|--1-1-1-1-1-1-1-1-|-----------------|-------------|


Chorus: F  Bb  C

Bridge:

G|-------------------|
D|*---3-1-----------*|
A|*-------3-1-------*|
E|--1----------------|


Party Song
EnJOy!

Clipes