A7
12
X02020
A7/C#
1234
X4525X
B7(4)
34
X24252
B9
34
X24422
Bm
234
X24432
Bm/E
1234
XX2432
Bm7
34
X24232
C
123
X32010
D6(9)
1234
X5X455
Em
12
022000
Em/D
XX0000
Em7(9)
123
020032
F#m7
3
242222
F7M
123
1XX210
G
123
320003
G/A
123
X0543X
G7M
1234
3X443X
Tom: G
[Intro]

#1t1#   F7M                    Em7(9)       G/A
#1t2#E|----0---0-----0-------------2--2---3------------------|
B|----1---1-------1-----------3--3---2---3---3---3---3--|
G|----2---2---------2---------0--0---0---4---4---4---4--|
D|---------------------------------------5---5---5---5--|
A|--------------------------2----------0---0---0---0----|
E|-1--------1-1-------1---0-----------------------------|#/1t2##/1t1#

[Primeira Parte]

#2t1#Parte 1 de 2
   D6(9)    A7/C#      B9    Bm   B9 Bm    Bm7
#2t2#E|-----5--------5---------------2-----------------------|
B|-----5--------5--------2---3----2--3------------------|
G|-----4--------0--------4---4----4--4---4-2------------|
D|-----------------------4---4----4--4---4-4------------|
A|-5------5-4------4---2----------2---------------------|
E|------------------------------------------------------|#/2t2##/2t1#

#3t1#Parte 2 de 2
   Em       Em/D       A7/C#     A7
#3t2#E|-----0--------0--------5--5--5------------------------|
B|-0---0--------0--------5--5--5------2--2--------------|
G|-0------------0--------0--0--0------0--0--------------|
D|-2------2-0------0------------------2--2--------------|
A|---------------------4---------0--0------0------------|
E|-0----------------------------------------------------|#/3t2##/3t1#

[Variação]

#4t1#Parte 1 de 2
   D6(9)    A7/C#      B9    Bm   B7(4)  Bm
#4t2#E|-----5--------5---------------2--------2--------------|
B|-----5--------5--------2---3--3--5-----3--------------|
G|-----4--------0--------4---4--4--2-----4--------------|
D|-----------------------4---4-----4--------------------|
A|-5------5-4------4---2--------------------------------|
E|------------------------------------------------------|#/4t2##/4t1#

#5t1#Parte 2 de 2
   Em      Em/D       A7/C#     A7
#5t2#E|----0--------0--------5--5--5-------------------------|
B|-0--0--------0--------5--5--5------2------------------|
G|-0-----------0--------0--0--0------0------------------|
D|-2-----2-0------0------------------2------------------|
A|--------------------4---------0--0---0-1-2------------|
E|-0----------------------------------------------------|#/5t2##/5t1#

D6(9)               A7/C#         B9  Bm  B9  Bm  Bm7
     Às vezes no silêncio da noite
Em              Em/D         A7/C#   A7
  Eu fico imaginando nós dois
D6(9)            A7/C#            B9   Bm       B7(4) Bm
     Eu fico ali sonhando acordado,      jun - tan - do
Em            Em/D          A7/C#  A7
  O antes o agora e o depois

[Segunda Parte]

[Passagem 1]

#6t1#    G7M
#6t2#E|-----2-0-----------2-0--------------------------------|
B|-----3----3--------3---3------------------------------|
G|-----4------4------4-----4----------------------------|
D|--------------4------------4--------------------------|
A|------------------------------------------------------|
E|---3------3------3-----3------------------------------|#/6t2##/6t1#

[Passagem 2]

#7t1#    Bm/E
#7t2#E|------------------------------------------------------|
B|-----7-----7-----7-----7-----7------------------------|
G|-----7-----7-----7-----7-----7------------------------|
D|-----9-----9-----9-----9-----9------------------------|
A|------------------------------------------------------|
E|--0-----0-----0-----0-----0-----0---------------------|#/7t2##/7t1#

Bm                 F#m7           G7M
  Por que você me deixa tão solto?
Bm                  F#m7       Bm/E
  Por que você não cola em mim?
Bm                F#m7        G7M
  Tô me sentindo muito sozinho

[Primeira Parte]

D6(9)                   A7/C#        Bm
     Não sou nem quero ser o seu dono
Em                     Em/D        A7/C#  A7
  É que um carinho às vezes cai bem
D6(9)                    A7/C#        B9  Bm       B7(4) Bm
     Eu tenho os meus desejos e planos      se - cre -  tos
Em               Em/D          A7/C#  A7
  Só abro pra você mais ninguém

[Segunda Parte]

Bm                   F#m7      G7M
  Porque você me esquece e some
Bm                   F#m7         Bm/E
  E se eu me interessar por alguém
Bm               F#m7         G7M
  E se ela de repente me ganha

[Refrão]

#8t1#Parte 1 de 4
   D6(9) A7/C# G7M
#8t2#E|-5-5---5-5-------2-0----------------------------------|
B|-5-5---5-5---3---3---3-----3--------------------------|
G|-4-4---0-0---4---4-----4---4--------------------------|
D|-------------4-----------4-4--------------------------|
A|-5---5-4---4------------------------------------------|
E|-------------3-3-------3-----3------------------------|#/8t2##/8t1#

#9t1#Parte 2 de 4
     Em    Em/D        C
#9t2#E|-0-0---0-----------0-0-----0---3-0--------------------|
B|-0-0---0-----------1--1------1-----1------------------|
G|-0-0---0-----0-----0---0-------------0----------------|
D|-----2-0---0-----0-2----2--------------2--------------|
A|---------2-----2---3-----3-----3----------------------|
E|-0----------------------------------------------------|#/9t2##/9t1#

#10t1#Parte 3 de 4
   D6(9) A7/C# Bm7           G
#10t2#E|-5-5---5-5--------------------------------------------|
B|-5-5---5-5---3-3-----------0-0------------------------|
G|-4-4---0-0---4-4---4-2-----0-0------------------------|
D|-------------4-4---4---4-2-0-0------------------------|
A|-5---5-4---4-2---2------------------------------------|
E|---------------------------3---3----------------------|#/10t2##/10t1#

#11t1#Parte 4 de 4
   G/A    D6(9)  G/A
#11t2#E|--------5---------------------------------------------|
B|-3-3----5----------3-3--------------------------------|
G|-4-4----4----------4-4--------------------------------|
D|-5-5---------------5-5--------------------------------|
A|-0---0--5------0-0-----0------------------------------|
E|------------------------------------------------------|#/11t2##/11t1#

D6(9)                         A7/C#                G7M
     Quando a gente gosta é claro que a gente cuida
 Em              Em/D                 C
Fala que me ama só que é da boca pra fora
D6(9)             A7/C#          Bm  Bm7  G
Ou você me engana ou não está madura

G/A              D6(9)  G/A
Onde está você agora

D6(9)                         A7/C#                G7M
     Quando a gente gosta é claro que a gente cuida
 Em              Em/D                 C
Fala que me ama só que é da boca pra fora
D6(9)             A7/C#          Bm   G
Ou você me engana ou não está madura
G/A
Onde está você agora?
Composição: PeninhaColaboração e revisão: Thiago AlmeidaTiago ProvasiEdilson SilvaGustavo Munhoze mais 8
Videoaula Sozinho (aula de violão completa)