busca

Sozinho

Caetano Veloso

Tom: Em
[Intro]

   F7M                    Em7(9)       G/A
E|----0---0-----0-------------2--2---3------------------|
B|----1---1-------1-----------3--3---2---3---3---3---3--|
G|----2---2---------2---------0--0---0---4---4---4---4--|
D|---------------------------------------5---5---5---5--|
A|--------------------------2----------0---0---0---0----|
E|-1--------1-1-------1---0-----------------------------|

[Primeira Parte]

Parte 1 de 2
   D6(9)    A7/C#      B9    Bm   B9 Bm    Bm7
E|-----5--------5---------------2-----------------------|
B|-----5--------5--------2---3----2--3------------------|
G|-----4--------0--------4---4----4--4---4-2------------|
D|-----------------------4---4----4--4---4-4------------|
A|-5------5-4------4---2----------2---------------------|
E|------------------------------------------------------|

Parte 2 de 2
   Em       Em/D       A7/C#     A7
E|-----0--------0--------5--5--5------------------------|
B|-0---0--------0--------5--5--5------2--2--------------|
G|-0------------0--------0--0--0------0--0--------------|
D|-2------2-0------0------------------2--2--------------|
A|---------------------4---------0--0------0------------|
E|-0----------------------------------------------------|

[Variação]

Parte 1 de 2
   D6(9)    A7/C#      B9    Bm   B7(4)  Bm
E|-----5--------5---------------2--------2--------------|
B|-----5--------5--------2---3--3--5-----3--------------|
G|-----4--------0--------4---4--4--2-----4--------------|
D|-----------------------4---4-----4--------------------|
A|-5------5-4------4---2--------------------------------|
E|------------------------------------------------------|

Parte 2 de 2
   Em      Em/D       A7/C#     A7
E|----0--------0--------5--5--5-------------------------|
B|-0--0--------0--------5--5--5------2------------------|
G|-0-----------0--------0--0--0------0------------------|
D|-2-----2-0------0------------------2------------------|
A|--------------------4---------0--0---0-1-2------------|
E|-0----------------------------------------------------|

D6(9)               A7/C#         B9  Bm  B9  Bm  Bm7
     Às vezes no silêncio da noite
Em              Em/D         A7/C#   A7
  Eu fico imaginando nós dois
D6(9)            A7/C#            B9   Bm       B7(4) Bm
     Eu fico ali sonhando acordado,      jun - tan - do
Em            Em/D          A7/C#  A7
  O antes o agora e o depois

[Segunda Parte]

[Passagem 1]

    G7M
E|-----2-0-----------2-0--------------------------------|
B|-----3----3--------3---3------------------------------|
G|-----4------4------4-----4----------------------------|
D|--------------4------------4--------------------------|
A|------------------------------------------------------|
E|---3------3------3-----3------------------------------|

[Passagem 2]

    Bm/E
E|------------------------------------------------------|
B|-----7-----7-----7-----7-----7------------------------|
G|-----7-----7-----7-----7-----7------------------------|
D|-----9-----9-----9-----9-----9------------------------|
A|------------------------------------------------------|
E|--0-----0-----0-----0-----0-----0---------------------|

Bm                 F#m7           G7M
  Por que você me deixa tão solto?
Bm                  F#m7       Bm/E
  Por que você não cola em mim?
Bm                F#m7        G7M
  Tô me sentindo muito sozinho

[Primeira Parte]

D6(9)                   A7/C#        Bm
     Não sou nem quero ser o seu dono
Em                     Em/D        A7/C#  A7
  É que um carinho às vezes cai bem
D6(9)                    A7/C#        B9  Bm       B7(4) Bm
     Eu tenho os meus desejos e planos      se - cre -  tos
Em               Em/D          A7/C#  A7
  Só abro pra você mais ninguém

[Segunda Parte]

Bm                   F#m7      G7M
  Porque você me esquece e some
Bm                   F#m7         Bm/E
  E se eu me interessar por alguém
Bm               F#m7         G7M
  E se ela de repente me ganha

[Refrão]

Parte 1 de 4
   D6(9) A7/C# G7M
E|-5-5---5-5-------2-0----------------------------------|
B|-5-5---5-5---3---3---3-----3--------------------------|
G|-4-4---0-0---4---4-----4---4--------------------------|
D|-------------4-----------4-4--------------------------|
A|-5---5-4---4------------------------------------------|
E|-------------3-3-------3-----3------------------------|

Parte 2 de 4
     Em    Em/D        C
E|-0-0---0-----------0-0-----0---3-0--------------------|
B|-0-0---0-----------1--1------1-----1------------------|
G|-0-0---0-----0-----0---0-------------0----------------|
D|-----2-0---0-----0-2----2--------------2--------------|
A|---------2-----2---3-----3-----3----------------------|
E|-0----------------------------------------------------|

Parte 3 de 4
   D6(9) A7/C# Bm7           G
E|-5-5---5-5--------------------------------------------|
B|-5-5---5-5---3-3-----------0-0------------------------|
G|-4-4---0-0---4-4---4-2-----0-0------------------------|
D|-------------4-4---4---4-2-0-0------------------------|
A|-5---5-4---4-2---2------------------------------------|
E|---------------------------3---3----------------------|

Parte 4 de 4
   G/A    D6(9)  G/A
E|--------5---------------------------------------------|
B|-3-3----5----------3-3--------------------------------|
G|-4-4----4----------4-4--------------------------------|
D|-5-5---------------5-5--------------------------------|
A|-0---0--5------0-0-----0------------------------------|
E|------------------------------------------------------|

D6(9)                         A7/C#                G7M
     Quando a gente gosta é claro que a gente cuida
 Em              Em/D                 C
Fala que me ama só que é da boca pra fora
D6(9)             A7/C#          Bm  Bm7  G
Ou você me engana ou não está madura

G/A              D6(9)  G/A
Onde está você agora

D6(9)                         A7/C#                G7M
     Quando a gente gosta é claro que a gente cuida
 Em              Em/D                 C
Fala que me ama só que é da boca pra fora
D6(9)             A7/C#          Bm   G
Ou você me engana ou não está madura
G/A
Onde está você agora?

Clipes