busca

The Scientist

Coldplay

Tabbed By : Flavio Zelenka
e-mail: *

Song Structure:
Intro
Verse A
Chorus
Interlude
Verse B
Chorus
Outro

Intro, Verse A, Chorus, Interlude: Bass is silent

Verse B:

G|----------------|----------------|----------------|----------------|
D|0-0-0-0-0-0-0-0-|----------------|----------------|----------------|
A|----------------|1-1-1-1-1-1-1-1-|----------------|----------------|
E|----------------|----------------|1-1-1-1-1-1-1-1-|1-1-1-1-1-1-1-1-|

G|----------------|----------------|----------------|----------------|
D|0-0-0-0-0-0-0-0-|----------------|----------------|----------------|
A|----------------|1-1-1-1-1-1-1-1-|----------------|----------------|
E|----------------|----------------|1-1-1-1-1-1-1-1-|1-1-1-1-1-1-1-1-|

G|----------------|----------------|----------------|----------------|
D|0-0-0-0-0-0-0-0-|----------------|----------------|----------------|
A|----------------|1-1-1-1-1-1-1-1-|----------------|----------------|
E|----------------|----------------|1-1-1-1-1-1-1-1-|1-1-1-1-1-1-1-1-|

G|----------------|----------------|----------------|----------------|
D|0-0-0-0-0-0-0-0-|----------------|----------------|----------------|
A|----------------|1-1-1-1-1-1-1-1-|----------------|----------------|
E|----------------|----------------|1-1-1-1-1-1-1-1-|1-1-1-1-1-1-1-1-|

Chorus:
G|----------------|----------------|----------------|----------------|
D|----------------|----------------|----------------|----------------|
A|1-1-1-1-1-1-1-1-|1-1-1-1-1-1-1-1-|----------------|----------------|
E|----------------|----------------|1-1-1-1-1-1-1-1-|1-1-1-1-1-1-1-1-|

G|----------------|----------------|----------------|----------------|
D|----------------|----------------|----------------|----------------|
A|1-1-1-1-1-1-1-1-|1-1-1-1-1-1-1-1-|----------------|----------------|
E|----------------|----------------|1-1-1-1-1-1-1-1-|1-1-1-1-1-1-1-1-|

Outro: Repeat n times
G|----------------|----------------|----------------|----------------|
D|0-0-0-0-0-0-0-0-|----------------|----------------|----------------|
A|----------------|1-1-1-1-1-1-1-1-|----------------|----------------|
E|----------------|----------------|1-1-1-1-1-1-1-1-|1-1-1-1-1-1-1-1-|


| /  slide up
| \  slide down
| h  hammer-on
| p  pull-off
| ~  vibrato
| +  harmonic
| x  Mute note
===============================================================================

Clipes

Cifra Club Pro

Aproveite o Cifra Club com benefícios exclusivos e sem anúncios
7 dias grátis
Cifra Club Pro
Aproveite o Cifra Club com benefícios exclusivos e sem anúncios
7 dias grátis