True Color

Cyndi Lauper

Tom: G
(intro)


E|3-----3-3-----3-|3-------------
B|--0-1-----0-1---|--0-1-------0-
G|----------------|------2-------
D|----------------|--------------
A|0-----0-2-----2-|3-------------
E|----------------|------1---1---

E|--|3-----3-3-----3-|3---------------| 
B|1-|--0-1-----0-1---|--0-1-----------| 
G|--|----------------|------2---------| 
D|--|----------------|----------------| 
A|--|0-----0-2-----2-|3---------------| 
E|--|----------------|------1---------| 



                                                          You with the

E|3-----3-3-----3-|3-------------
B|--0-1-----0-1---|--0-1-------0-
G|----------------|------2-------
D|----------------|--------------
A|0-----0-2-----2-|3-------------
E|----------------|------1---1---

E|--|3-----3-3-----3-|3---------------| 
B|1-|--0-1-----0-1---|--0-1-----------| 
G|--|----------------|------2---------| 
D|--|----------------|----------------| 
A|--|0-----0-2-----2-|3---------------| 
E|--|----------------|------1---------| 



  sad     eyes     don't....      
E|0-------3-------|0-1-3-3-----0-
B|1-------3-------|1-----1-------
G|2-------4-------|0-----0---0---
D|----------------|--------------
A|0-------2-------|3-------------
E|----------------|------0-------
                                 In 
E|--|3-----1-----0---|0---------------| 
B|1-|--------------3-|1-----3---------| 
G|--|----------------|------0---------| 
D|--|----------------|----------------| 
A|--|----------------|0---------------| 
E|0-|1---------------|------3---------| 



  world....                       
E|----------------|---------------
B|5-----5-6-----6-|8-----10----8--
G|----5-------7---|----9-10-------
D|--5-------7-----|--9---10-------
A|3-------5-------|7-----8--------
E|----------------|---------------
    darkness....           But I'll 
E|-|0---------------|---------------
B|-|1-----3---------|3-------1------
G|-|2-----4---------|---------------
D|-|------5---------|3-------2------
A|-|----------------|3-------3------
E|-|----------------|---------------



  True  Colors....                
E|1-----0---------|3-----3-------
B|1-----1---------|1---1-0-----0-
G|2---2-0-----0---|--0-------0---
D|--3-------2-----|--------------
A|------3-------3-|--------------
E|1---------------|3-----3-------
    True Colors..and that's...
E|--|1-----0---------|1-----3-----3---| 
B|3-|1-----1-------1-|1---1-1-----0---| 
G|--|2---2-0-----0---|--2-------0-----| 
D|--|--3-------2-----|----------------| 
A|--|----------------|----------------| 
E|--|1-----0---------|1-----3-----3---| 



   don't be afraid....             
E|----------------|---------------
B|--3-1-1---------|--3-1-1--------
G|2---2-0-----0---|2-----2--------
D|--3-------2-----|3--------------
A|------3-------3-|------0--------
E|1---------------|1--------------
   True colors      True colors
E|-|----------------|---------------
B|-|----------------|----1----------
G|-|--0---0---------|--2---0--------
D|-|3-----2-------2-|3-----2--------
A|-|3-----3---------|3-----3--------
E|-|----------------|---------------



 beautiful..like a
E|3---------------| 
B|3---------------| 
G|5---------------| 
D|----------------| 
A|----------------| 
E|3---------------| 


rainbow..... E|3-----3-3-----3-|3------------- B|--0-1-----0-1---|--0-1-----0-1- G|----------------|------2------- D|----------------|-------------- A|0-----0-2-----2-|3------------- E|----------------|------1------- Show me E|--|3-----3-3-----3-|3---------------| B|--|--0-1-----0-1---|--0-1-----------| G|2-|----------------|------2---------| D|--|----------------|----------------| A|--|0-----0-2-----2-|3---------------| E|1-|----------------|------1---------| smile then Don't be.... E|0-------3-------|0-1-3-3-----0- B|1-------3-------|1-----1------- G|2-------4-------|0-----0---0--- D|----------------|-------------- A|0-------2-------|3------------- E|----------------|------0------- remember... last saw.... I E|3-|3-----1-----0---|0------------- B|--|--------------3-|1-----3-----0- G|--|----------2-----|------0---0--- D|--|----------------|-------------- A|--|----------------|0------------- E|--|1---------------|------3------- --| 3-| --| --| --| --| this world... E|----------------|--------------- B|5-----5-6-----6-|8-----10----8-- G|----5-------7---|----9-10------- D|--5-------7-----|--9---10------- A|3-------5-------|7-----8-------- E|----------------|--------------- You call... know... I'll s E|-|0---------------|--------------- B|-|1-----3---------|3-------1------ G|-|2-----4---------|--------------- D|-|------5---------|3-------2------ A|-|----------------|3-------3------ E|-|----------------|--------------- True Colors.... E|1-----0---------|3-----3------- B|1-----1---------|1---1-0-----0- G|2---2-0-----0---|--0-------0--- D|--3-------2-----|-------------- A|------3-------3-|-------------- E|1---------------|3-----3------- True Colors..and that's... E|--|1-----0---------|1-----3-----3- B|3-|1-----1-------1-|1---1-1-----3- G|--|2---2-0-----0---|--2-------0--- D|--|--3-------2-----|-------------- A|--|----------------|-------------- E|--|1-----0---------|1-----3-----3- --| --| 0-| --| --| --| don't be afraid.... E|----------------|--------------- B|1-----1-------1-|1-----1-------- G|2---2-0-----0---|2---3-2-----2-- D|--3-------2-----|--3------------ A|------3-------3-|------0-------- E|1---------------|1-------------- True colors True colors E|-|----------------|-------------- B|-|1-----1-------1-|1-----1------- G|-|2-----0-----0---|2-----0-----0- D|-|3-----2---2-----|3-----2---2--- A|-|3-----3---------|3-----3------- E|-|----------------|-------------- E|--| B|--| G|--| D|--| A|3-| E|--| Beautiful... E|3---------------| B|3---------------| G|5---------------| D|----------------| A|----------------| E|3---------------| Rainbow.... E|3-----3-3-----3-|3------------- B|--0-1-----0-1---|--0-1-----0-1- G|----------------|------2------- D|----------------|-------------- A|0-----0-2-----2-|3------------- E|----------------|------1------- E|--|3-----3-3-----3-|3------------- B|--|--0-1-----0-1---|--0-1-----0-1- G|2-|----------------|------2------- D|--|----------------|-------------- A|--|0-----0-2-----2-|3------------- E|1-|----------------|------1------- --| --| 2-| --| --| 1-| Ooo... E|0-------3-------|0-----3-------- B|1-------3-------|1-----3-------- G|2-------4-------|0-----5-------- D|----------------|--------------- A|0-------2-------|3-------------- E|----------------|------0-------- Can't remember... I E|-|3-----1-----0---|0-------------- B|-|--------------3-|1-----3-------- G|-|----------------|------0-------- D|-|----------------|--------------- A|-|----------------|0-------------- E|-|1---------------|------3-------- if this world.. E|----------------|--------------- B|5-----5-6-----6-|8-----10----8-- G|----5-------7---|----9-10------- D|--5-------7-----|--9---10------- A|3-------5-------|7-----8-------- E|----------------|--------------- call me... know... I'l E|-|0---------------|--------------- B|-|1-----3-------3-|1-------1------ G|-|2---2-4-----4---|--------------- D|-|------5---5-----|3-------2------ A|-|----------------|3-------3------ E|-|----------------|--------------- True Colors.... E|1-----0---------|3-----3------- B|1-----1-------1-|1---1-0-----0- G|2---2-0-----0---|--0-------0--- D|--3-------2-----|-------------- A|------3---------|-------------- E|1---------------|3-----3------- True Colors..and that's... E|--|1-----0---------|1-----3-----3- B|3-|1-----1-------1-|1---1-1-----3- G|--|2---2-0-----0---|--2-------0--- D|--|--3-------2-----|-------------- A|--|----------------|-------------- E|--|1-----0---------|1-----3-----3- --| --| 0-| --| --| --| don't be afraid.... E|----------------|--------------- B|1-----1---------|1-----1-------- G|2---2-0-----0---|2---3-2-----2-- D|--3-------2-----|--3------------ A|------3-------3-|------0-------- E|1---------------|1-------------- True colors True colors E|-|----------------|-------------- B|-|1-----1-------1-|1-----1------- G|-|2---2-0-----0---|2---2-0-----0- D|-|3-3---2---2-----|3-3---2---2--- A|-|3-----3-------3-|3-----3------- E|-|----------------|-------------- E|--| B|--| G|--| D|--| A|3-| E|--| True colors.. shining through E|----------------|-------------- B|1-----1-----1---|1-----0-----0- G|2---2-0---2-----|2---2-0---0--- D|3-3---2---------|--3----------- A|3-----3-3-------|-------------- E|----------------|3-----3------- ..True colors...and that's.... E|--|1---------3-----|1-------3---3- B|3-|1-----1---1-----|1-------1---0- G|--|2---2-0---0---0-|2---2-----0--- D|--|--3---2---------|--3----------- A|--|----------------|-------------- E|3-|1-----0---3-----|1-----1-3---3- --| --| 0-| --| --| --| Don't be.... let them show.. E|1-----0---------|--------------- B|1-----1---------|0-----1-------- G|2---2-0---------|1-----2-------- D|--3-------------|3-----2-------- A|------3---------|------0-------- E|1---------------|1-------------- True colors True colors... E|-|----------------|--------------- B|-|1-----1---------|1-----1-------- G|-|2-----0---------|2-----0-------- D|-|3-----2---------|3-----2-------- A|-|3-----3---------|3-----3-------- E|-|----------------|--------------- Beautiful... Like a ra E|3---------------|--------------- B|3---------------|--------------- G|5---------------|--------------- D|----------------|--------------- A|----------------|--------------- E|3---------------|--------------- inbow E|-|3-----3-3-----3-|0h1-0---------- B|-|--0-1-----0-1---|------3-1------ G|-|----------------|--------2------ D|-|----------------|--------------- A|-|0-----0-1-----1-|3-------------- E|-|----------------|--------1------
Composição: Billy Steinberg / Tom KellyColaboração e revisão: Diego Martins