busca

83 - Não Posso Explicar

Harpa Cristã

Tom: Bb
E|----------------|-10-10-10-8-6-6----6-|--------------------|
B|--------------6-|-6--6--6--------10---|-13-11----11-6----6-|
G|----------------|----------8-7-7-7--7-|-0--0--12-0--7----7-|
D|----------------|-8--8--8--8----------|-13-13-13-13-8----8-|
A|--------------8-|------------8-8-8--8-|-------13-----------|
E|----------------|-6--6--6--6-6-6-6--6-|-11-11-11-11-6----6-|

E|-10-10-10-8-6-6----6-|-8--8--8--10-8-------|-10-10-10-8-6-6----6-|
B|-6--6--6--------10---|---------------------|-6--6--6--------10---|
G|----------8-7-7-7--7-|-10-10-9--9--10---10-|----------8-7-7-7--7-|
D|-8--8--8--8----------|-7--7-----8--7----7--|-8--8--8--8----------|
A|------------8-8-8--8-|-8--8--10----8----8--|------------8-8-8--8-|
E|-6--6--6--6-6-6-6--6-|-------8--8----------|-6--6--6--6-6-6-6--6-|

E|-8-6-3-6-1----1-|-3-3-5-5-6-6-8--8--|-10-8-6-5-6-----|-6-----------6----|
B|-4-4-4-4-3----3-|-4-4-4-4-3-3-------|--------------6-|-----------6---10-|
G|-0-0-3-0-3----3-|-3-3---------8--8--|-10-8-7-5-7-----|-7-7-7-7-7-7-7-7--|
D|----------------|-----3-3-3-3-------|-8--7-----------|-----------8-8-8--|
A|-6-6-6-6-1----1-|-6-6-3-3-----10-10-|-8--8-8-8-8---8-|-8-8-8-8-8--------|
E|----------------|---------6-6-11-11-|----------6-----|-6-6-6-6-6-6-6-6--|

E|---------------|-8---------0-8-6-|-5-------------|-10---------8-6-5-|
B|-8-----------8-|-5-5-5-5-5-8-5-5-|-6-6-6-6-6---6-|-6--6-6-6-6-6-6-6-|
G|-8-8-8-8-8---8-|-5---------0---5-|-5-5-5-5-5-----|------------------|
D|-8-8-8-8-8---8-|---5-5-5-5---5---|-------------7-|-8--8-8-8-8-8-----|
A|-6-6-6-6-6---6-|-----------------|-8-8-8-8-8---8-|--------------8-8-|
E|---------------|-8-8-8-8-8-8-8-8-|---------------|-6--6-6-6-6-6-6-6-|

E|-8---6---5---3---|---6-----6------|-6------------|
B|-4-4-4-4-4---4-4-|-6-6---------10-|--------------|
G|-0-0-0-0-0---3-3-|-7-7-----8---8--|-7------------|
D|-----------------|-8-------10-----|--------------|
A|-6-6-6-6-6---6-6-|-8-8-----8---8--|-8------------|
E|-----------------|----------------|-6------------|

Clipes

Cifra Club Pro

Aproveite o Cifra Club com benefícios exclusivos e sem anúncios
7 dias grátis
Cifra Club Pro
Aproveite o Cifra Club com benefícios exclusivos e sem anúncios
7 dias grátis