busca

Além do Céu Azul

Harpa Cristã

Tom: C
E|-----------|-7-----6-7-6-|-7-------7-8-|-7---5---4-|-5---------|-5-----4-5-7-|
B|---------0-|-3-----------|-3-------3-5-|-3-------0-|---------3-|-------------|
G|---------7-|-------6-7-6-|---------0---|-0---5-----|-5-------5-|-5-----4-5-7-|
D|-----------|---------5---|-------------|-0---4---3-|-4---------|-----4-------|
A|-----------|-----5-------|-----5-------|-----------|-5---0-----|-----5-------|
E|-----------|-3-----------|-3-----------|-----------|---------2-|-------------|

E|-10------8-10-|-8---7---6-|-7---------|-7-----6-7-6-|-7-------10-|-10----8-7-8-|
B|-7---------7--|-----------|---------3-|-3-----------|-3-------6--|-------5-5-5-|
G|---------9----|-9---7---6-|-7-------4-|-------6-7-6-|---------0--|-9-----------|
D|-----7--------|-----------|-0---------|---------5---|------------|---------5---|
A|--------------|-10------7-|-----------|-----5-------|------------|-----7-------|
E|-----10-------|-----------|---7-3-----|-3-----------|-3---5---7--|-8-----------|

E|-----------|-------0-----0--|---------5-|-3---------|----------|
B|-5-------5-|-7-----------13-|-12--------|-0---------|----------|
G|-5-------5-|-7--------7-----|-0-------5-|-0---------|----------|
D|-5---------|-7-----10-10----|-12--11--0-|-----0-----|----------|
A|-----------|-----9----10----|---------9-|---------2-|----------|
E|-8---------|-10-------------|-10--12----|-----------|-3--------|

Clipes

Cifra Club Pro

Aproveite o Cifra Club com benefícios exclusivos e sem anúncios
7 dias grátis
Cifra Club Pro
Aproveite o Cifra Club com benefícios exclusivos e sem anúncios
7 dias grátis