busca

Resgatados Fomos

Harpa Cristã

Tom: Ab
E|------------------------|-4--------4--------------|------------------------|
B|----------4--4---4-6--4-|------4---4--8---11-6--8-|-6----4---4--4---4-6--4-|
G|----------5--5---5-6--5-|-5----5---5--8---0--6--6-|-6----5---5--5---5-6--5-|
D|----------6--6---6-6--6-|------6------8---11-6--8-|-6--------6--6---6-6--6-|
A|------------------------|-6------------------6--6-|------------------------|
E|----------4--4---4-4--4-|-4----4---4--11--11------|-4--------4--4---4-4--4-|

E|-4--------8--6---1--------|----------8--9---9--8---6-|
B|------4---4--4---3-8---9--|-11----------8---8------4-|
G|-5----5------0---1-8------|-0--------8---------8---0-|
D|------6---6--------8---12-|-11----------8---8--------|
A|-6-----------6-----10--11-|----------11--------11--6-|
E|-4----4---4------------13-|-11-------11-11--11-11----|

E|-8---6-4--3-------------8--|-----4-------8---8-8--8-|
B|-4--------4--6---9---------|-11--1-------4---4-4--4-|
G|-----6-5-----6------8---8--|-0---1-1----------------|
D|-6--------6--6---11-10-----|-11--1-------6---6-6--6-|
A|-----6-6---------8--11--11-|------------------------|
E|-4---4-4--4--9---9--11--11-|-11----4-----4---4-4--4-|

E|-8----4--------------------|-------------8---11-8------|
B|-4-----------14--14-14--14-|-14---11---------9--9---11-|
G|------5------12--12-12--12-|-12---0------8------8---8--|
D|-6----6------8---8--8---8--|-8----13---------10-----10-|
A|---------------------------|-------------11--11-11--11-|
E|-4----4------11--11-11--11-|-11---11-------------------|

E|-----------------8--8---6-|-4--------------------|
B|-9------------------9---8-|-4--------------------|
G|-10---10--10-8---8--8---8-|-5--------------------|
D|-11---11--11-10-----------|----------------------|
A|------11--11-11--11-----6-|----------------------|
E|-9----9---9--11--11-11----|-4--------------------|

Clipes

Cifra Club Pro

Aproveite o Cifra Club com benefícios exclusivos e sem anúncios
7 dias grátis
Cifra Club Pro
Aproveite o Cifra Club com benefícios exclusivos e sem anúncios
7 dias grátis