Eu Nunca Imaginei

Hinos Avulsos CCB

Am
123
X02210
B7
1234
X21202
C
123
X32010
Cm
234
X35543
D
123
XX0232
Em
12
022000
G
123
320003
Tom: G
Intro 2x:
   G                 D                 Em            C

#1t1##1t2#E|-----3---3-3-5-7-|-----2---2-2-2-3-5-3-0-0-0-2-3-|-------------0----|
B|---3---3---------|---3---3---------------0-0-0-0-|-----1-------1----|
G|-----------------|-2-----------------------------|---0---0---0---0--|
D|-------------0-0-|-0-----------------2-----------|-2-------2--------|
A|---------2-2-----|-------------------2-----------|-3-------3--------|
E|-3---------------|-------------------------------|------------------|#/1t2##/1t1#

G        D           Em
Eu nunca imaginei o que eu ia passar,
       C   D     G
Em Deus eu esperei a minha vitória,
        D        Em
Alguém me perguntou o que sucedeu
        C   D       C
Que tanto esperou e nada aconteceu,
        G            C
Pensei em desistir e parar de lutar,
            Em     D       G
Mais alguém dentro de mim me diz pra não parar,
   G                 D                 Em            C

#2t1##2t2#E|-----3---3-3-5-7-|-----2---2-2-2-3-5-3-0-0-0-2-3-|-------------0----|
B|---3---3---------|---3---3---------------0-0-0-0-|-----1-------1----|
G|-----------------|-2-----------------------------|---0---0---0---0--|
D|-------------0-0-|-0-----------------2-----------|-2-------2--------|
A|---------2-2-----|-------------------2-----------|-3-------3--------|
E|-3---------------|-------------------------------|------------------|#/2t2##/2t1#

G     D       Em
Eu procurei uma solução,
      C   D       G
mas só encontrei dor e aflição,
        D        Em
O que será de mim nesta condição,
     C    D        C
Senhor sem ti não tenho salvação,
        G            C
Pensei em desistir e parar de lutar,
            Em     D       G  C
Mais alguém dentro de mim me diz pra não parar,

B7    Em     D  C
O tempo dirá em tua vida,
G     B7      Em      D   C
Quem vencerá nunca discorde com a vontade do pai,
G             D
Pois ele vai te ajudar,
C    G   C   G Am      G     C          G
Deus te ama, oh... ele te vê, sempre estará na sua vida

G  C         G     C          G
Deus ama você nunca desista, ele te vê lá de cima,
  Em       D        C          Cm           G  D Em  C  D G
Sem Deus esperar, ele virá, e a sua vida, e a sua vida, Mudará.
G        D           Em
Eu nunca imaginei o que eu ia passar,
        C  D      G
em Deus eu esperei,a minha vitória.
Composição: Alice Candido / Amanda Santos / Ana / Ana Paula / Andrew Amaurick / Beto / Carol / CCB / Ccb Hino Avulso / Congregação Cristã No Brasil / Daniel Barbosa / Daniel de Itapé / Denys / Desconhecido / Ebner Crispim / Eduardinho / Fernando / Gabriel Almeida / Gabriel de Janaúba / Ir. Miro e Leandro / Irmão Shmidt / Irmãos / Irmãos Shmidt / Isaac Hickman Meredith / Isaac Nascimento / Jefferson / Jefferson Cano / Jesus Cristo / João Cândido / João Carlos / João Paulo / Joel Massami De Oliveira / Juh ueno / Juninho Portugal / LEANDRO SOUZA / Lucas Leitte / Mateus Alves / Matheus Wyllker / Mauricio De Anadias / Mello / Meninos Da Fazenda Rio Grande / Mickaelly Livio / Pamela / Paulo Henrique Cipriano / Paulo Sérgio / Príncipe Music / Reis / Rodrigo Vieira / Sam Oliver / Thiago Ribeiro / Vitor Dias / W. Silva / WaguinhoColaboração e revisão: richard souzaThiago JosephSoraia Melli