busca

Eu Nunca Imaginei

Hinos Avulsos CCB

Tom: G
Intro 2x:
   G                 D                 Em            C

E|-----3---3-3-5-7-|-----2---2-2-2-3-5-3-0-0-0-2-3-|-------------0----|
B|---3---3---------|---3---3---------------0-0-0-0-|-----1-------1----|
G|-----------------|-2-----------------------------|---0---0---0---0--|
D|-------------0-0-|-0-----------------2-----------|-2-------2--------|
A|---------2-2-----|-------------------2-----------|-3-------3--------|
E|-3---------------|-------------------------------|------------------|

G        D           Em
Eu nunca imaginei o que eu ia passar,
       C   D     G
Em Deus eu esperei a minha vitória,
        D        Em
Alguém me perguntou o que sucedeu
        C   D       C
Que tanto esperou e nada aconteceu,
        G            C
Pensei em desistir e parar de lutar,
            Em     D       G
Mais alguém dentro de mim me diz pra não parar,
   G                 D                 Em            C

E|-----3---3-3-5-7-|-----2---2-2-2-3-5-3-0-0-0-2-3-|-------------0----|
B|---3---3---------|---3---3---------------0-0-0-0-|-----1-------1----|
G|-----------------|-2-----------------------------|---0---0---0---0--|
D|-------------0-0-|-0-----------------2-----------|-2-------2--------|
A|---------2-2-----|-------------------2-----------|-3-------3--------|
E|-3---------------|-------------------------------|------------------|

G     D       Em
Eu procurei uma solução,
      C   D       G
mas só encontrei dor e aflição,
        D        Em
O que será de mim nesta condição,
     C    D        C
Senhor sem ti não tenho salvação,
        G            C
Pensei em desistir e parar de lutar,
            Em     D       G  C
Mais alguém dentro de mim me diz pra não parar,

B7    Em     D  C
O tempo dirá em tua vida,
G     B7      Em      D   C
Quem vencerá nunca discorde com a vontade do pai,
G             D
Pois ele vai te ajudar,
C    G   C   G Am      G     C          G
Deus te ama, oh... ele te vê, sempre estará na sua vida

G  C         G     C          G
Deus ama você nunca desista, ele te vê lá de cima,
  Em       D        C          Cm           G  D Em  C  D G
Sem Deus esperar, ele virá, e a sua vida, e a sua vida, Mudará.
G        D           Em
Eu nunca imaginei o que eu ia passar,
        C  D      G
em Deus eu esperei,a minha vitória.

Clipes