Aqualung

Jethro Tull

Tom: G
#1t1#Parte 1 de 10
#1t2#E|------------------------------------------|
B|---6--8/10~-------------------------------|
G|-7-------------3-2h3p2--------------------|
D|-----------------------3------------------|
A|-------------------------3~---------------|
E|------------------------------------------|#/1t2##/1t1#

#2t1##2t2#E|------------------------------------------|
B|------------------------------------------|
G|--------------------------5--3~-----------|
D|-----3-5-/7~------------5-----------------|
A|-3h5------------3--3-/7-------------------|
E|------------------------------------------|#/2t2##/2t1#

#3t1##3t2#E|-3---------3------------------------------|
B|---4---------3----------------------------|
G|-----5~--------3~-------------------------|
D|------------------------------------------|
A|------------------------------------------|
E|------------------------------------------|#/3t2##/3t1#

#4t1##4t2#E|------------------------------------------|
B|------------------------------------------|
G|-----------5-5-5-5------5---5-5-7p5---5---|
D|-----3-5/7-----------7----7---------7-----|
A|-3h5--------------------------------------|
E|------------------------------------------|#/4t2##/4t1#

#5t1##5t2#E|------------------------------------------|
B|-------6-8b10r8p6-------------------------|
G|---5-7-------------5--7\------------------|
D|-7----------------------------------------|
A|------------------------------------------|
E|------------------------------------------|#/5t2##/5t1#

#6t1#Parte 2 de 10
#6t2#E|------------------------------------------|
B|------------------------------------------|
G|-----3---5-----------------3-3-5p3---3----|
D|-5-----------3-------3---5---------5---5~-|
A|-----------------5------------------------|
E|------------------------------------------|#/6t2##/6t1#

#7t1#Parte 3 de 10
#7t2#E|------------------------------------------|
B|------------------------------------------|
G|-3-5/7~\5----3----------------------------|
D|------------------5----3------------------|
A|-------------------------5\3-1-----1-3/5--|
E|-------------------------------1h3--------|#/7t2##/7t1#

#8t1##8t2#E|------------------------------------------|
B|------------------------------------------|
G|-------3---3--3-3-3---3---5/7~\5----------|
D|-3-3-5---5----------5---5-----------------|
A|------------------------------------------|
E|------------------------------------------|#/8t2##/8t1#

#9t1##9t2#E|------------------------------------------|
B|------------------------------------------|
G|-3-5p3---3-----------3---5-3--------------|
D|-------5---------3-5---5-----3------------|
A|-----------5~-------------------5---------|
E|------------------------------------------|#/9t2##/9t1#

#10t1#Parte 4 de 10
#10t2#E|------------------------------------------|
B|---------------6---------8----3/----------|
G|-----3-5/7~---------5---------------------|
D|-3h5--------------------------------------|
A|------------------------------------------|
E|------------------------------------------|#/10t2##/10t1#

#11t1#Parte 5 de 10
#11t2#E|------------------------------------------|
B|---------------------6-6-6-8p6-6-6--------|
G|-----------5-5-5-5h7----------------------|
D|-----3-5/7--------------------------------|
A|-3h5--------------------------------------|
E|------------------------------------------|#/11t2##/11t1#

#12t1##12t2#E|------------------------------------------|
B|---------------6-8p6---6------------------|
G|-7--5--7p5---5-------7--------5---5-7\----|
D|-----------7-------------7------7---------|
A|------------------------------------------|
E|------------------------------------------|#/12t2##/12t1#

#13t1#Parte 6 de 10
#13t2#E|------------------------------------------|
B|------------------------------------------|
G|-----3---5b7r5~---3--5b7r5---3------------|
D|-5------------------------------3-3-5--3--|
A|-----------------------------------------5|
E|------------------------------------------|#/13t2##/13t1#

#14t1#Parte 7 de 10
#14t2#E|------------------------------------------|
B|--------------------------6-8-----6-8-----|
G|--------3--------3--5/7~------7-----------|
D|------5----5~-----------------------------|
A|---5--------------------------------------|
E|-3----------------------------------------|#/14t2##/14t1#

#15t1#Parte 8 de 10
#15t2#E|---10---------8-----------8p6---8p6---6---|
B|-6-----8~\-------6-8----6-----6-----6---8~|
G|------------------------------------------|
D|------------------------------------------|
A|------------------------------------------|
E|------------------------------------------|#/15t2##/15t1#

#16t1#Parte 9 de 10
#16t2#E|------------------------------------------|
B|-6----------------------------------------|
G|---7\5-3-5-3-5p3---3-----------3-5p3------|
D|-----------------5-----3---3-5------------|
A|---------------------5---5-----------5~---|
E|------------------------------------------|#/16t2##/16t1#

#17t1#Parte 10 de 10
#17t2#E|------------------------------------------|
B|-------------------------6-8/10-----------|
G|-----------5-5-5-5h7---7------------------|
D|-----3-5/7--------------------------------|
A|-3h5--------------------------------------|
E|------------------------------------------|#/17t2##/17t1#

#18t1##18t2#E|-------13-------13-------13---------------|
B|-13h15----13h15----13h15----15~-----------|
G|------------------------------------------|
D|------------------------------------------|
A|------------------------------------------|
E|------------------------------------------|#/18t2##/18t1#
Composição: Ian Anderson / Jennie AndersonColaboração e revisão: Thiago Almeida
Videoaula AQUALUNG - Como fazer solo de guitarra