busca

Aço e Concreto

Macucos

Tom: D
Intro 2x: A D
(guitarra 1)
      A              D
E|----5----5----|----5----5-------|
B|----5------5--|----7------5-----|
G|----6---------|----7------------|
D|----7---------|----7------------|
A|----7---------|----5------------|
E|----5---------|----5------------|

(guitarra 2)
E|--0-5---0-5-0-7-9-12--|-14-12----15-12----12-|-15-12-------------0---|
B|----------------------|-------15-------15----|-------15-12-15-12--10-|
G|----------------------|----------------------|-----------------------|
D|----------------------|----------------------|-----------------------|
A|----------------------|----------------------|-----------------------|
E|----------------------|----------------------|-----------------------|

A                      D                          A
Sei que vou , um dia desses vou me embora pro interior
          D                     A
Nessa cidade de concreto vou virar robô
        B7                   E7
Naturalmente tudo isso vai mudar
A                  D                        A
Veja bem , ja não existe mas espaço pra se caminhar
            D                           A
Milhões de carros,automoveis rodam sem parar
            E7                A
E quem tem perna não vai ter colher de chá
  E            D               A
Soam buzinas,motores pelas avenidas
 E                D                            A
Numa guerra tremenda de choques que coisa infernal !!
E                  D                  A     F#
Vamos fugir do cansaço dos anos vividos
       B                              E7
Ande logo meu bem,que o trem ja vai apitar

         Bm                E
Adeus cidade de aço concreto
            A     F#m
Adeus fantasia
        Bm          E      
Adeus maria,joão e josé            
            A                     
Adeus carnaval
( A     D )
Adeus carnaval

( F  G  A )

Clipes

Cifra Club Pro

Aproveite o Cifra Club com benefícios exclusivos e sem anúncios
7 dias grátis
Cifra Club Pro
Aproveite o Cifra Club com benefícios exclusivos e sem anúncios
7 dias grátis