C
123
X32010
Db5
134
X466XX
Eb5
134
X688XX
Fm
34
133111
Tom: G

     Fm              Eb5
E|--------------|-----------------
B|---------9----|-----------------
G|--------------|----------8------
D|-----10-------|-------8---------
A|--8-----------|----6------------
E|--------------|-----------------



     C              Db5
E|--------------|-----------------
B|---------4----|-----------------
G|--------------|----------6------
D|------5-------|-------6---------
A|--3-----------|----4------------
E|--------------|-----------------


Intro 4x: Fm  Eb5  C  Db5

Fm     Eb5             C      Db5
    My face above the water
Fm     Eb5                       
    My feet can't touch the 
   C       Db5
ground, touch the ground. And it 
feels like,
Fm     Eb5             C        
       I can see the sands on 
     Db5
the horizon
     Fm   Eb5                C   
Everytime you are not around     
       Db5
  I'm slowly drifting
Fm     Eb5            C       Db5
    Away, drifting away
Fm Eb5 Wave after wave Wave after C Db5 wave I'm slowly drifting Fm Eb5 C drifting away And it Db5 Fm feels like I'm drowning Eb5 C Pulling against the stream Db5 Fm Pulling against the stream Eb5 C Db5 Interludio 4x: Fm D#5 C C#5 Fm Eb5 I wish I could make it C Db5 easy, Fm Eb5 C Db5 easy to love me, love me Fm Eb5 But still I reach, I find a C Db5 way, I'm stuck here in between, Fm Eb5 I'm looking for the right words to C Db5 say I'm slowly drifting Fm Eb5 C Db5 drifting away Fm Eb5 Wave after wave Wave after C Db5 wave I'm slowly drifting Fm Eb5 C drifting away And it Db5 Fm feels like I'm drowning Eb5 C Pulling against the stream Db5 Fm Pulling against the stream Eb5 C Db5
Composição: Jihad Rahmouni / Mr. ProbzColaboração e revisão: Vinícius CarvalhoMateus RodrigoFernando MedeirosVitor Silvae mais 4