Ninguém Explica Deus

Preto No Branco

Am7
12
X02010
Am7(9)
1234
XX7587
Am7(9)/G
1234
302410
B7
1234
X21202
B7/D#
123
XX1202
C7M
12
X3200X
C7M(11+)
1234
8X997X
C7M/D
234
10X9988
D/F#
1234
2X0232
D7(4)
123
XX0213
D9(11)
123
X54030
Dm7(6/9)
134
X53500
Em
12
022000
Em7(9)
1234
X7577X
Em9
13
024000
F#m7(5-)
1234
2X221X
F7M(11+)
1234
133200
G/B
123
X20033
G5
134
355XXX
G5(7M)
123
3X403X
G7
34
353433
G7(4)
34
35353X
G7M
1234
3X443X
G9
12
3X020X
Tom: G
[Intro] G5(7M)  G7M  Em7(9)  Em9
        C7M  G/B  Am7(9)

#1t1#Parte 1 de 4
        G5(7M)        G7M
#1t2#E|------------------------------------------|
B|-------3-------0---------0----------------|
G|-----0-----0---------0-------0------------|
D|---4-----4---4-----4---4---4---4----------|
A|------------------------------------------|
E|-3---------------3------------------------|#/1t2##/1t1#

#2t1#Parte 2 de 4
        Em7(9)       Em9
#2t2#E|------------------------------------------|
B|-------3-------0---------0----------------|
G|-----0-----0---------0-------0------------|
D|---4-----4---4-----4---4---4---4----------|
A|------------------------------------------|
E|-0---------------0------------------------|#/2t2##/2t1#

#3t1#Parte 3 de 4
        C7M             G/B
#3t2#E|-----------0------------3p2---------------|
B|-------0--------------3-----3-------------|
G|-----0---------0----0---------0-----------|
D|---2-----2---2------------------0---------|
A|-3----------------2-----------------------|
E|------------------------------------------|#/3t2##/3t1#

#4t1#Parte 4 de 4
        Am7(9)
#4t2#E|-------------0----0-----------------------|
B|---------0--------0-----------------------|
G|-------5----------5-----------------------|
D|-----5-----5---5--5-----------------------|
A|------------------------------------------|
E|-3/5--------------5-----------------------|#/4t2##/4t1#


[Primeira Parte – Primeira Estrofe]

 G5(7M)                 G7M
Nada é igual ao Seu redor
 Em7(9)               Em9
Tudo se faz no Seu olhar
 C7M                   G/B
Todo o universo se formou
          Am7(9)
No Seu falar

#5t1#Parte 1 de 4
        G5(7M)        G7M
#5t2#E|------------------------------------------|
B|-------3-------0---------0----------------|
G|-----0-----0---------0-------0------------|
D|---4-----4---4-----4---4---4---4----------|
A|------------------------------------------|
E|-3---------------3------------------------|#/5t2##/5t1#

#6t1#Parte 2 de 4
        Em7(9)       Em9
#6t2#E|------------------------------------------|
B|-------3-------0---------0----------------|
G|-----0-----0---------0-------0------------|
D|---4-----4---4-----4---4---4---4----------|
A|------------------------------------------|
E|-0---------------0------------------------|#/6t2##/6t1#

#7t1#Parte 3 de 4
        C7M             G/B
#7t2#E|-----------0------------3p2---------------|
B|-------0--------------3-----3-------------|
G|-----0---------0----0---------0-----------|
D|---2-----2---2------------------0---------|
A|-3----------------2-----------------------|
E|------------------------------------------|#/7t2##/7t1#

#8t1#Parte 4 de 4
        Am7(9)
#8t2#E|-------------0--------0-------------------|
B|---------0------------0-------------------|
G|-------5---------5----5-------------------|
D|-----5-----5---5------5-------------------|
A|------------------------------------------|
E|-3/5---------------5--5-------------------|#/8t2##/8t1#


[Primeira Parte - Segunda Estrofe]

 G5(7M)            G7M
Teologia pra explicar
Em7(9)              Em9
Ou big bang pra disfarçar
 C7M                    G/B
Pode alguém até duvidar
 Am7(9)               C7M/D
Sei que há um Deus a me guardar

#9t1#Parte 1 de 4
        G5(7M)        G7M
#9t2#E|------------------------------------------|
B|-------3-------0---------0----------------|
G|-----0-----0---------0-------0------------|
D|---4-----4---4-----4---4---4---4----------|
A|------------------------------------------|
E|-3---------------3------------------------|#/9t2##/9t1#

#10t1#Parte 2 de 4
        Em7(9)       Em9
#10t2#E|------------------------------------------|
B|-------3-------0---------0----------------|
G|-----0-----0---------0-------0------------|
D|---4-----4---4-----4---4---4---4----------|
A|------------------------------------------|
E|-0---------------0------------------------|#/10t2##/10t1#

#11t1#Parte 3 de 4
        C7M                     G/B
#11t2#E|-----------0------------------------------|
B|-------0---------------0--------3---------|
G|-----0---------0-----0--------0-----------|
D|---2-----2---2-----2--------0-------------|
A|-3---------------3--------2---------------|
E|------------------------------------------|#/11t2##/11t1#

#12t1#Parte 4 de 4
        Am7(9)            C7M/D
#12t2#E|-------------0--------------0-------------|
B|---------0----------------0-0-------------|
G|-------5---------5------5---5-------------|
D|-----5-----5---5------5-----5-------------|
A|--------------------5-------5-------------|
E|-3/5--------------------------------------|#/12t2##/12t1#


[Pré-Refrão]

  C7M(11+)  D9(11)
E eu tão pequeno e frágil
    Em7(9)
Querendo Sua atenção
Am7(9)   Am7(9)/G
   No silêncio encontro
    F7M(11+)       D/F#
Resposta certa então

#13t1#Parte 1 de 4
        C7M(11+)         D9(11)
#13t2#E|-----------0------------------------------|
B|-------0------------------5---------------|
G|-----0---------0--------0-----0-----------|
D|---4-----4---4--------4-----4-----4-------|
A|-3----------------4/5-----------5---------|
E|------------------------------------------|#/13t2##/13t1#

#14t1#Parte 2 de 4
        Em7(9)
#14t2#E|------------------------------------------|
B|---------7-------7--------7---------------|
G|-------0-----0----------0-------0---------|
D|-----5-----5---5------5-------5---5-------|
A|-5/7----------------7-------7-------------|
E|------------------------------------------|#/14t2##/14t1#

#15t1#Parte 3 de 4
        Am7(9)           Am7(9)/G
#15t2#E|-----------0----------------0-------------|
B|-------0----------------0-----------------|
G|-----5---------5------5---------5---------|
D|---5-----5---5------5-----5---5-----------|
A|------------------------------------------|
E|-5----------------3-----------------------|#/15t2##/15t1#

#16t1#Parte 4 de 4
        F7M(11+)  D/F#
#16t2#E|-------0----------------------------------|
B|-----0----------3-------------------------|
G|-----2--------2---------------------------|
D|---3--------0-----------------------------|
A|------------------------------------------|
E|-1--------2-------------------------------|#/16t2##/16t1#


[Refrão]

G9  G5      G7M
   Dono de toda ciência
Em7(9)        Em9
       Sabedoria e poder
    C7M        G/B
Oh dá-me de beber
 Am7(9)     C7M/D
Da água da fonte da vida

G9  G5           G7M
    Antes que o haja houvesse
Em7(9)        Em9
       Ele já era Deus
    C7M        G/B
Se revelou ao seus
     Am7(9)    C7M/D
Do crente ao ateu

Ninguém explica Deus

#17t1#Parte 1 de 4
        G9      G5      G7M
#17t2#E|------------------------------------------|
B|-------0-------3----------0---------------|
G|-----2-------0-------0--------0-----------|
D|---0-------0-------4---4----4---4---------|
A|------------------------------------------|
E|-3-------3-------3------------------------|#/17t2##/17t1#

#18t1#Parte 2 de 4
        Em7(9)       Em9
#18t2#E|------------------------------------------|
B|-------3-------0---------0----------------|
G|-----0-----0---------0-------0------------|
D|---4-----4---4-----4---4---4---4----------|
A|------------------------------------------|
E|-0---------------0------------------------|#/18t2##/18t1#

#19t1#Parte 3 de 4
        C7M             G/B
#19t2#E|-----------0------------3p2---------------|
B|-------0--------------3-----3-------------|
G|-----0---------0----0---------0-----------|
D|---2-----2---2------------------0---------|
A|-3----------------2-----------------------|
E|------------------------------------------|#/19t2##/19t1#

#20t1#Parte 4 de 4
        Am7(9)            C7M/D
#20t2#E|-------------0--------------0-------------|
B|---------0----------0---------------------|
G|-------5---------5--5---5-------5---------|
D|-----5-----5---5----5-5---5---5---5-------|
A|--------------------5---------------------|
E|-3/5--------------------------------------|#/20t2##/20t1#


(repete as partes 1, 2 e 3)

Parte 04 De 04 (Variação)

#21t1#        Am7(9)            C7M/D
#21t2#E|-------------0------0---------------------|
B|---------0----------0---------------------|
G|-------5---------5--5---------------------|
D|-----5-----5---5----5---------------------|
A|--------------------5---------------------|
E|-3/5--------------------------------------|#/21t2##/21t1#


[Intro com variação] G5(7M)  G7M  Em7(9)  Em9
                     C7M  G/B  Am7(9)  C7M/D

#22t1#Parte 1 de 4
        G5(7M)        G7M
#22t2#E|------------------------------------------|
B|-------3-------0---------0----------------|
G|-----0-----0---------0-------0------------|
D|---4-----4---4-----4---4---4---4----------|
A|------------------------------------------|
E|-3---------------3------------------------|#/22t2##/22t1#

#23t1#Parte 2 de 4
        Em7(9)       Em9
#23t2#E|------------------------------------------|
B|-------3-------0---------0----------------|
G|-----0-----0---------0-------0------------|
D|---4-----4---4-----4---4---4---4----------|
A|------------------------------------------|
E|-0---------------0------------------------|#/23t2##/23t1#

#24t1#Parte 3 de 4
        C7M             G/B
#24t2#E|-----------0------------3p2---------------|
B|-------0--------------3-----3-------------|
G|-----0---------0----0---------0-----------|
D|---2-----2---2------------------0---------|
A|-3----------------2-----------------------|
E|------------------------------------------|#/24t2##/24t1#

#25t1#Parte 4 de 4
        Am7(9)          C7M/D
#25t2#E|-------------0----0-----------------------|
B|---------0--------0-----------------------|
G|-------5----------5-----------------------|
D|-----5-----5---5--5-----------------------|
A|------------------5-----------------------|
E|-3/5--------------------------------------|#/25t2##/25t1#


[Primeira Parte]

 G5(7M)                 G7M
Nada é igual ao Seu redor
 Em7(9)               Em9
Tudo se faz no Seu olhar
 C7M                   G/B
Todo o universo se formou
          Am7(9)
No Seu falar

 G5(7M)            G7M
Teologia pra explicar
Em7(9)              Em9
Ou big bang pra disfarçar
 C7M                    G/B
Pode alguém até duvidar
 Am7(9)               C7M/D
Sei que há um Deus a me guardar

[Pré-Refrão]

  C7M(11+)  D9(11)
E eu tão pequeno e frágil
    Em7(9)
Querendo Sua atenção
Am7(9)   Am7(9)/G
   No silêncio encontro
    F7M(11+)       D/F#
Resposta certa então

[Refrão]

G9  G5      G7M
   Dono de toda ciência
Em7(9)        Em9
       Sabedoria e poder
    C7M        G/B
Oh dá-me de beber
 Am7(9)     C7M/D
Da água da fonte da vida

G9  G5           G7M
    Antes que o haja houvesse
Em7(9)        Em9
       Ele já era Deus
    C7M        G/B
Se revelou ao seus
    Am7(9)      C7M/D
Do gentio ao judeu

Ninguém explica Deus

[Segunda Parte]

G5(7M)               G7M
       Ninguém explica

Ninguém explica Deus
Em7(9)               Em9
       Ninguém explica

Ninguém explica Deus
C7M              G/B
    E se duvida,     ou se acredita
Am7(9)                 F#m7(5-)
       Ninguém explica
            B7   B7/D#
Ninguém explica Deus

Em
   Ninguém explica

Ninguém explica Deus

Dm7(6/9)
         Ninguém explica
G7(4)             G7
      Ninguém explica Deus
C7M              G/B
    E se duvida,     ou se acredita
Am7
    Ninguém explica
D7(4)
      Ninguém explica Deus

#26t1#Parte 1 de 8
        G5(7M)        G7M
#26t2#E|------------------------------------------|
B|-------3-------0---------0----------------|
G|-----0-----0---------0-------0------------|
D|---4-----4---4-----4---4---4---4----------|
A|------------------------------------------|
E|-3---------------3------------------------|#/26t2##/26t1#

#27t1#Parte 2 de 8
        Em7(9)       Em9
#27t2#E|------------------------------------------|
B|-------3-------0---------0----------------|
G|-----0-----0---------0-------0------------|
D|---4-----4---4-----4---4---4---4----------|
A|------------------------------------------|
E|-0---------------0------------------------|#/27t2##/27t1#

#28t1#Parte 3 de 8
        C7M             G/B
#28t2#E|-----------0------------3p2---------------|
B|-------0--------------3-----3-------------|
G|-----0---------0----0---------0-----------|
D|---2-----2---2------------------0---------|
A|-3----------------2-----------------------|
E|------------------------------------------|#/28t2##/28t1#

#29t1#Parte 4 de 8
        Am7(9)            F#m7(5-)  B7  B7/D#
#29t2#E|-------------0----------------------------|
B|---------0----------------1---0---7-------|
G|-------5---------5------2-----2---4-------|
D|-----5-----5---5------2-------1---7-------|
A|------------------------------2---6-------|
E|-3/5----------------2---------------------|#/29t2##/29t1#

#30t1#Parte 5 de 8
      Em
#30t2#E|------------------------------0-----------|
B|-------0-------0----------0---------------|
G|-----0-----0----------0-------------------|
D|---2-----2---2------2---2---2---0---------|
A|------------------------------------------|
E|-0----------------0-----------------------|#/30t2##/30t1#

#31t1#Parte 6 de 8
        Dm7(6/9)        G7(4)    G7
#31t2#E|-----------0------------------------------|
B|-------0----------------------------------|
G|-----5---------5--------5--4-----4--------|
D|---3---------3--------3--------3----------|
A|-5-------5----------5--------5------------|
E|------------------3--------3--------------|#/31t2##/31t1#

#32t1#Parte 7 de 8
        C7M             G/B
#32t2#E|-----------0------------3p2---------------|
B|-------0--------------3-----3-------------|
G|-----0---------0----0---------0-----------|
D|---2-----2---2------------------0---------|
A|-3----------------2-----------------------|
E|------------------------------------------|#/32t2##/32t1#

#33t1#Parte 8 de 8
        Am7(9)           D7(4)
#33t2#E|-----------0------3-----------------------|
B|-------1-----1----1---1----1-0------------|
G|-----0---------0--0-0---0------0----------|
D|---2-----2--------0--------2-0---0--------|
A|-0----------------------------------------|
E|------------------------------------------|#/33t2##/33t1#

[Refrão]

G9  G5      G7M
   Dono de toda ciência
Em7(9)        Em9
       Sabedoria e poder
    C7M        G/B
Oh dá-me de beber
 Am7(9)     C7M/D
Da água da fonte da vida

G9  G5           G7M
    Antes que o haja houvesse
Em7(9)
       Ele já era Deus
    C7M        G/B
Se revelou ao seus
    Am7(9)      C7M/D
Do gentio ao judeu
                 G9
Ninguém explica Deus
Composição: Clóvis PinhoColaboração e revisão: Leandro SandimOSMAR FEITOSACLAUDIA DOTTOKalleb Diase mais 12
Videoaula Ninguém Explica Deus (aula de violão completa)