Never Be Alone

Shawn Mendes

B7
1234
X21202
C
123
X32010
D
123
XX0232
Em
12
022000
G
123
320003
Tom: G
[Intro] Em  C  G
        Em  C  G


[Dedilhado Padrão]

   Em                   C
E|--------------------------------
B|---0-----0---0-----0----1-----1-
G|---0-----0---0-----0----0-----0-
D|--------------------------0h2---
A|-----0h2-------0h2----3---------
E|-0---------0--------------------

E|----------| 
B|--1-----1-| 
G|--0-----0-| 
D|----0h2---| 
A|3---------| 
E|----------| 



   G
E|--------------------------------
B|---0-----0---0-----0----0-----0-
G|---0-----0---0-----0----0-----0-
D|--------------------------------
A|-----0h2-------0h2--------0h2---
E|-3---------3----------3---------

E|----------| 
B|--0---0---| 
G|--0---0---| 
D|----------| 
A|----------| 
E|3---2-----| 


[Primeira Parte]

    Em                        
I promise that one day I'll be 
   C
around
I'll keep you safe, I'll keep you 
 G
sound
       Em
Right now it's pretty crazy
       C                           
And I don't know how to stop or 
      G
slow it down

[Pré-Refrão]

 C                                 
Hey, I know there are some things 
           Em
we need to talk about
             C                     
And I can't stay so let me hold you
                D
 for a little longer now

[Refrão]

 G                  C
Take a piece of my heart
                     G
And make it all your own
                 D
So when we are apart
B7 Em You'll never be alone C G You'll never be alone ( Em C G ) ( Em C G ) [Segunda Parte] You'll never be alone Em C When you miss me close your eyes G I may be far but never gone Em When you fall asleep tonight just C remember G That we lay under the same stars [Pré-Refrão] C Hey, I know there are some things Em we need to talk about C And I can't stay so let me hold you D for a little longer now [Refrão] G C Take a piece of my heart G And make it all your own D So when we are apart B7 Em You'll never be alone C G You'll never be alone [Ponte] Em C G You'll never be alone Em C G You'll never be alone Em C G You'll never be alone Em C G You'll never be alone [Refrão] G C Take a piece of my heart G And make it all your own D So when we are apart B7 Em You'll never be alone C G You'll never be alone
Composição: Glen Scott / Martin Terefe / Scott Harris / Shawn MendesColaboração e revisão: Thiago AlmeidaMarcelo LeiteShamir RoncoAdryan Santose mais 13