18 And Life

Skid Row

A5
X0P22XX
A5(9)
12
X02200
B5
134
X244XX
C#5
134
X466XX
C#m
234
X46654
C#m7
34
X46454
C#m7(9)
1234
X4244X
E5
0P22XXX
F#5
134
244XXX
G#5
134
466XXX
Tom: G
Introdução: C#m  A5(9)  B5(11)
            C#m  A5(9)  B5(11)
(Guitarra Base)

#1t1##1t2#E|-----------------------------------------
B|---5-----4-----------5-----4-------------
G|-----6-----4-----------6-----4-----------
D|-------6-----4-----------6-----4---------
A|-4-------------4h6-4---------------------
E|---------------------------------7-------#/1t2##/1t1#

#2t1##2t2#E|---------------------0-------0-----------
B|---5-----4-----------0-------0-----------
G|-----6-----4---------2-------4-----------
D|-------6-----4\----2-------4-------------
A|-4---------------0-------2---------------
E|-----------------------------------------#/2t2##/2t1#

#3t1##3t2#E|-----------------------------------------
B|---5-----4-----------5-----4-------------
G|-----6-----4-----------6-----4-----------
D|-------6-----4-----------6-----4---------
A|-4-------------4h6-4---------------------
E|---------------------------------7-------#/3t2##/3t1#

#4t1##4t2#E|---------------------0-------0-----------
B|---5-----4-----------0-------0-----------
G|-----6-----4---------2-------4-----------
D|-------6-----4\----2-------4-------------
A|-4---------------0-------2---------------
E|-----------------------------------------#/4t2##/4t1#


Primeira Parte:
(Guitarra Base)

#5t1##5t2#E|-----------------------------------------
B|---5-----4-----------5-----4-------------
G|-----6-----4-----------6-----4-----------
D|-------6-----4-----------6-----4---------
A|-4-------------4h6-4---------------------
E|---------------------------------7-------#/5t2##/5t1#

#6t1##6t2#E|---------------------0-------0-----------
B|---5-----4-----------0-------0-----------
G|-----6-----4---------2-------4-----------
D|-------6-----4\----2-------4-------------
A|-4---------------0-------2---------------
E|-----------------------------------------#/6t2##/6t1#

(Guitarra Solo)

#7t1#         P.M
#7t2#E|-----------------------------------------
B|---------------------------5~~-----------
G|---------------------------4~~-----------
D|-\--2------4------4/6~~----2~~-----------
A|-\--0--0-0-2------2/4~~----4~~-----------
E|-\------------/4~------------------------#/7t2##/7t1#


 C#m
Ricky was a young boy

He had a heart of stone

Lived nine to five and worked
     A5             B5
His fingers to the bone
(Guitarra Base)

#8t1##8t2#E|-----------------------------------------
B|---5-----4-----------5-----4-------------
G|-----6-----4-----------6-----4-----------
D|-------6-----4-----------6-----4---------
A|-4-------------4h6-4---------------------
E|---------------------------------7-------#/8t2##/8t1#

#9t1##9t2#E|-----------------------------------------
B|---5-----4-------------------------------
G|-----6-----4-----------------------------
D|-------6-----4\--2---4-------------------
A|-4---------------0---2-------------------
E|------------------------/4~--------------#/9t2##/9t1#


C#m
    Just barely out of school

Came from the edge of town

Fought like a switchblade so no
A5                  B5
One could take him down

Ponte:
     P.M . . .       . . . . .
#10t1##10t2#E|-----------------------------------------
B|-----------------------------------------
G|-----------------------------------------
D|-2-2-2-2-2-2-2---------------------------
A|-0-0-0-0-0-0-0---4-4-4-4-4-4--2-4--------
E|---------------4-2-2-2-2-2-2--0-2--------#/10t2##/10t1#

#11t1#     P.M . . .
#11t2#E|-----------------------------------------
B|-----------------------------------------
G|-----------------2---2-----4---4---------
D|-----------------2-2---2-2-4-4---4-------
A|-6-6-6-6-6-6-4-6-0-----0-0-2-------------
E|-4-4-4-4-4-4-2-4-------------------------#/11t2##/11t1#


A5                       F#5
   He had no money, oooh     no good at home
    G#5
He walked the streets as a soldier
        A5                B5
And he fought the world alone

And now it's

#12t1#Primeiro Refrão:
#12t2#E|-----------------------------------------
B|-----------------------------------------
G|-----6-------2-----------------4---------
D|---6---6---2-----------2-----4---4-------
A|-4-------0-----0h2---2---2-2-------------
E|-------------------0---------------------#/12t2##/12t1#

#13t1##13t2#E|-----------------------------------------
B|-----------------------------------------
G|-----6-------2-----------------4---------
D|---6---6---2-----------2-----4---4-------
A|-4-------0-----0h2---2---2-2-------------
E|-------------------0---------------------#/13t2##/13t1#


C#5               A5
    Eighteen and life you got it
E5               B5
   Eighteen and life you know
C#5                A5
    Your crime is time and it's
E5               B5
   Eighteen and life to go
#14t1##14t2#E|-----------------------------------------
B|-----------------------------------------
G|-----6-------2-----------------4---------
D|---6---6---2-----------2-----4---4-------
A|-4-------0-----0h2---2---2-2-------------
E|-------------------0---------------------#/14t2##/14t1#

#15t1##15t2#E|-----------------------------------------
B|-----------------------------------------
G|-----6-------2-----------------4---------
D|---6---6---2-----------2-----4---4-------
A|-4-------0-----0h2---2---2-2-------------
E|-------------------0---------------------#/15t2##/15t1#


C#5               A5
    Eighteen and life you got it
E5               B5
   Eighteen and life you know
C#5                A5
    Your crime is time and it's
E5               B5
   Eighteen and life to go

( C#m )
Riff 1:

#16t1#(Guitarra Solo 1)
#16t2#E|---------------------------------------------------
B|---------------------------------------------------
G|-11h13p11\9h11p9\8\6~~-----------------------------
D|---------------------------------------------------
A|---------------------------------------------------
E|---------------------------------------------------#/16t2##/16t1#

#17t1#(Guitarra Solo 2)
#17t2#E|---------------------------------------------------
B|---------------------------------------------------
G|---------------------------------------------------
D|-13h14p13\9h11p9\7\6~~-----------------------------
A|---------------------------------------------------
E|---------------------------------------------------#/17t2##/17t1#


Segunda Parte:
(Guitarra Solo)
   P.M     . .      . .     .      .
#18t1##18t2#E|-----------------------------------------
B|------5~------4~-------5~----4~----------
G|------4~------4~-------4~----4~-----4~~--
D|-6-6--6~-6-6--6~--6-6--6~-6--6~--6--4~~--
A|-4-4-----4-4------4-4-----4------4-------
E|-----------------------------------------#/18t2##/18t1#

#19t1#   P.M     . .         . .
#19t2#E|-----------------------------------------
B|------5~------4\-------------------------
G|------4~------4\--2------4---------------
D|-6-6--6~-6-6--6\--2------4---------------
A|-4-4-----4-4------0--0-0-2---------------
E|---------------------------/4~~----------#/19t2##/19t1#


C#m
    Tequila in his heartbeat

His veins burned gasoline

It kept his motor running
A5(9)            B5(11)
   But it never kept him clean
   P.M      . .      . .   .   .
#20t1##20t2#E|-----------------------------------------
B|-----5~~------4~~------5---4-------------
G|-----4~~------4~~------4---4---4~~-------
D|-----2~~------2~~------2---2-------------
A|-4-4-4~~--4-4-4~~--4-4-4-4-4-4-----------
E|-----------------------------------------#/20t2##/20t1#

#21t1#   P.M      . .        . .
#21t2#E|-----------------------------------------
B|-----5~~------4\-------------------------
G|-----4~~------4\--2------4---------------
D|-----2~~------2\--2------4---------------
A|-4-4-4~~--4-4-4\--0--0-0-2---------------
E|---------------------------/4~~----------#/21t2##/21t1#


C#m7                      C#m7(9)
     They say he loved adventure
     C#m7     C#m7(9)
"Ricky's the wild one"
C#m7                    C#m7(9)
     He married trouble
           A5               B5
And had a courtship with a gun

Ponte:
A5
   Bang bang shoot 'em up
     F#5
The party never ends
 G#5
You can't think of dying
          A5                  B5
When the bottle's your best friend

And now it's

Segundo Refrão:
C#5               A5
    Eighteen and life you got it
E5               B5
   Eighteen and life you know
C#5                A5
    Your crime is time and it's
E5               B5
   Eighteen and life to go

C#5               A5
    Eighteen and life you got it
E5               B5
   Eighteen and life you know
C#5                A5
    Your crime is time and it's
E5               B5      C#5
   Eighteen and life to go
Riff 2:
#22t1##22t2#E|-/12~~--14p12-14b16~~------------------------------
B|---------------------------------------------------
G|---------------------------------------------------
D|---------------------------------------------------
A|---------------------------------------------------
E|---------------------------------------------------#/22t2##/22t1#

Interlúdio:

#23t1##23t2#E|-----------------------------------------
B|-----------------------------------------
G|-----------------------------------------
D|-----------------4----------2-----------4
A|-2--2-----2h4-2--2--2h4-2---0----0---0--2
E|-0--0-2-4-----------------4----4---4-----#/23t2##/23t1#


 E5
"Accidents will happen"
     B5
They all heard ricky say
    A5
He fired his six-shot to the wind
       B5
That child blew a child away

Solo: C#5  A5  E5  B5
                            H.A     H.A
#24t1##24t2#E|---------------------------------------------------
B|---------------------------------------------------
G|----8/9------8/9------8/9-9b11~~-b11r9p8----8/9----
D|-9~-----11~~-----11~~--------------------9~-----11~
A|---------------------------------------------------
E|-7~------------------------------------------------#/24t2##/24t1#

#25t1#                                            \1
#25t2#E|---------------------------------------------------
B|----9-12-9-12b14~~-b14r12p9------------------------
G|----------------------------11/13~-14p13/11---9\8~-
D|-x-------------------------------------------------
A|-x-------------------------------------------------
E|-x-------------------------------------------------#/25t2##/25t1#

#26t1#  H.A \1
#26t2#E|---------------------------------------------------
B|-0------------9h10h12-10~-12/14\12p10p9------------
G|-------8h9h11---------------------------11p9p8h9p8~
D|---------------------------------------------------
A|---------------------------------------------------
E|---------------------------------------------------#/26t2##/26t1#

#27t1##27t2#E|----------------9~~---12b14r12p9-12~~--------------
B|-----------9h12------------------------------------
G|------9h11-----------------------------------------
D|-9h11----------------------------------------------
A|---------------------------------------------------
E|---------------------------------------------------#/27t2##/27t1#

#28t1##28t2#E|19-16h17p16h17p16---------------------------------
B|-------------------19-17p16h17p16h17p16------------
G|----------------------------------------16-14h16p14
D|---------------------------------------------------
A|---------------------------------------------------
E|---------------------------------------------------#/28t2##/28t1#

#29t1##29t2#E|-------19b21~~-------------------------------------
B|---------------------------------------------------
G|-h16p14--------------------------------------------
D|---------------------------------------------------
A|---------------------------------------------------
E|---------------------------------------------------#/29t2##/29t1#


Refrão Final:
C#5               A5
    Eighteen and life you got it
E5               B5
   Eighteen and life you know
C#5                A5
    Your crime is time and it's
E5               B5
   Eighteen and life to go

C#5               A5
    Eighteen and life you got it
E5               B5
   Eighteen and life you know
C#5                A5
    Your crime is time and it's
E5               B5      C#5
   Eighteen and life to go

#30t1#Solo Final: C#5  A5  E5  B5
#30t2#E|---------------------------------------------------
B|---------------------------------------------------
G|/9\8----------------------/9\8---------------------
D|-----9~--9/11\6~--6/7\4~~------9~--9/11\6~--6/7\4~-
A|---------------------------------------------------
E|---------------------------------------------------#/30t2##/30t1#

#31t1##31t2#E|--------------9-11-12~~-11-------------------------
B|---------9h12--------------12~-12/14---------------
G|----9h11-----------------------------13~--13h14-11~
D|11------------------------------------------------
A|---------------------------------------------------
E|---------------------------------------------------#/31t2##/31t1#

#32t1##32t2#E|-------14p12\11----11h12--11-----------------------
B|-14p12----------12-----------12~~-12h14------------
G|----------------------------------------13~~-------
D|---------------------------------------------------
A|---------------------------------------------------
E|---------------------------------------------------#/32t2##/32t1#

#33t1#   P.M.     .  .     .  .
#33t2#E|-------12-------12---------------------------------
B|-------12-------12-------------12------------------
G|-13-13-13-11-11-11-11-11-11b13----b13r11-9~~-------
D|---------------------------------------------------
A|---------------------------------------------------
E|---------------------------------------------------#/33t2##/33t1#


( C#5 )
Composição: Dave The Snake Sabo / Rachel BolanColaboração e revisão: Vinícius DiasGustavo T.Roger FerrariAnna Gabriellae mais 1
Videoaula 18 And Life (aula de guitarra)