Instrumento: Baixo
Afinção: Drop D (DADG)

Intro (Played x4)
G|------------------------------------------------------------------------|
D|------------------------------------------------------------------------|
A|------------------------------------------------------5-5-5-5-----------|
D|--9-9-9-9-9-9-9-9--9-9-9-9-9-9-9-9--5-5-5-5-5-5-5-5/-----------7-7-7-7--|

Verse 1 (Played x4)
G|------------------------------------------------------------------------|
D|------------------------------------------------------------------------|
A|------------------------------------------------------5-5-5-5-----------|
D|--9-9-9-9-9-9-9-9--9-9-9-9-9-9-9-9--5-5-5-5-5-5-5-5/-----------7-7-7-7--|

Pre-Chorus
G|--------------------------------------------------------------------|
D|--------------------------------------------------------------------|(x3)
A|-6-6-6-6-6-6-6-6--7-7-7-7-7-7-7-7-----------------------------------|
D|-----------------------------------9-9-9-9-9-9-9-9--9-9-9-9-9-9-9-9-|

G|------------------------------------------------------------------------|
D|------------------------------------------------------------------------|
A|--6-6-6-6-6-6-6-6--7-7-7-7-7-7-7-7--4-4-4-4-4-4-4-4/--6-6-6-6-6-6-6-6/--|
D|------------------------------------------------------------------------|

Chorus
G|------------------------------------------------------------------------|
D|--6-6-6-6-6-6-6-6-------------------9-9-9-9-9-9-9-9---------------------|
A|-------------------7-7-7-7-7-7-7-7-------------------9-9-9-9-7-7-7-7----|
D|------------------------------------------------------------------------|

G|------------------------------------------------------------------------|
D|------------------------------------------------------------------------|
A|--6-6-6-6-6-6-6-7---7-7-7-7-7-7-7--4-4-4-4-4-4-4-4--6-6-6-6-6-6-6-6/----|
D|------------------------------------------------------------------------|

G|------------------------------------------------------------------------|
D|--6-6-6-6-6-6-6-6-------------------9-9-9-9-9-9-9-9---------------------|
A|-------------------7-7-7-7-7-7-7-7-------------------9-9-9-9-7-7-7-7----|
D|------------------------------------------------------------------------|

G|------------------------------------------------------------------------|
D|------------------------------------------------------------------------|
A|--6-6-6-6-6-6-6-6--7-7-7-7-7-7-7-7--4-4-4-4-4-4-4-4--6-6-6-6-6-6-6-6/---|
D|------------------------------------------------------------------------|

G|------------------------------------------------------------------------|
D|------------------------------------------------------------------------|
A|--7-7-7-7-7-7-7-7/--9-9-9-9-9-9-9-9-------------------------------------|
D|------------------------------------------------------------------------|

Outro (Played x2)
G|------------------------------------------------------------------------|
D|------------------------------------------------------------------------| A|------------------------------------------------------5-5-5-5-----------| D|--9-9-9-9-9-9-9-9--9-9-9-9-9-9-9-9--5-5-5-5-5-5-5-5/-----------7-7-7-7--| Verse 2 (Played x4) G|------------------------------------------------------------------------| D|------------------------------------------------------------------------| A|------------------------------------------------------5-5-5-5-----------| D|--9-9-9-9-9-9-9-9--9-9-9-9-9-9-9-9--5-5-5-5-5-5-5-5/-----------7-7-7-7--| Pre-Chorus G|--------------------------------------------------------------------| D|--------------------------------------------------------------------|(x3) A|-6-6-6-6-6-6-6-6--7-7-7-7-7-7-7-7-----------------------------------| D|-----------------------------------9-9-9-9-9-9-9-9--9-9-9-9-9-9-9-9-| G|------------------------------------------------------------------------| D|------------------------------------------------------------------------| A|--6-6-6-6-6-6-6-6--7-7-7-7-7-7-7-7--4-4-4-4-4-4-4-4/--6-6-6-6-6-6-6-6/--| D|------------------------------------------------------------------------| Chorus G|------------------------------------------------------------------------| D|--6-6-6-6-6-6-6-6-------------------9-9-9-9-9-9-9-9---------------------| A|-------------------7-7-7-7-7-7-7-7-------------------9-9-9-9-7-7-7-7----| D|------------------------------------------------------------------------| G|------------------------------------------------------------------------| D|------------------------------------------------------------------------| A|--6-6-6-6-6-6-6-7---7-7-7-7-7-7-7--4-4-4-4-4-4-4-4--6-6-6-6-6-6-6-6/----| D|------------------------------------------------------------------------| G|------------------------------------------------------------------------| D|--6-6-6-6-6-6-6-6-------------------9-9-9-9-9-9-9-9---------------------| A|-------------------7-7-7-7-7-7-7-7-------------------9-9-9-9-7-7-7-7----| D|------------------------------------------------------------------------| G|------------------------------------------------------------------------| D|------------------------------------------------------------------------| A|--6-6-6-6-6-6-6-6--7-7-7-7-7-7-7-7--4-4-4-4-4-4-4-4--6-6-6-6-6-6-6-6/---| D|------------------------------------------------------------------------| G|------------------------------------------------------------------------| D|------------------------------------------------------------------------| A|--7-7-7-7-7-7-7-7/--9-9-9-9-9-9-9-9-------------------------------------| D|------------------------------------------------------------------------| Bridge (Played x4) G|------------------------------------------------------------------------| D|----------------------------------9-------------------------------------| A|----6----7--------------6----7------------------------------------------| D|--------------9---------------------------------------------------------| Solo G|--------------------------------------------------------------------| D|--------------------------------------------------------------------|(x3) A|--------------------------------------------------------------------| D|-1-1-1-1-1-1-1-1--2-2-2-2-2-2-2-2/-9-9-9-9-9-9-9-9--9-9-9-9-9-9-9-9-| G|------------------------------------------------------------------------| D|------------------------------------------------------------------------| A|---------------4-4------6-6-6-6-6---------------------------------------| D|---1-1---2-2------------------------------------------------------------| Chorus SOLO BASS DOES NOT PLAY Chorus P2 G|------------------------------------------------------------------------| D|--6-6-6-6-6-6-6-6-------------------9-9-9-9-9-9-9-9---------------------| A|-------------------7-7-7-7-7-7-7-7-------------------9-9-9-9-7-7-7-7----| D|------------------------------------------------------------------------| G|------------------------------------------------------------------------| D|------------------------------------------------------------------------| A|--6-6-6-6-6-6-6-7---7-7-7-7-7-7-7--4-4-4-4-4-4-4-4--6-6-6-6-6-6-6-6/----| D|------------------------------------------------------------------------| G|------------------------------------------------------------------------| D|--6-6-6-6-6-6-6-6-------------------9-9-9-9-9-9-9-9---------------------| A|-------------------7-7-7-7-7-7-7-7-------------------9-9-9-9-7-7-7-7----| D|------------------------------------------------------------------------| G|------------------------------------------------------------------------| D|------------------------------------------------------------------------| A|--6-6-6-6-6-6-6-6--7-7-7-7-7-7-7-7--4-4-4-4-4-4-4-4--6-6-6-6-6-6-6-6/---| D|------------------------------------------------------------------------| G|------------------------------------------------------------------------| D|------------------------------------------------------------------------| A|--7-7-7-7-7-7-7-7/--9-9-9-9-9-9-9-9-------------------------------------| D|------------------------------------------------------------------------| Outro (Played x2) G|------------------------------------------------------------------------| D|------------------------------------------------------------------------| A|------------------------------------------------------5-5-5-5-----------| D|--9-9-9-9-9-9-9-9--9-9-9-9-9-9-9-9--5-5-5-5-5-5-5-5/-----------7-7-7-7--| Fin G|-------------------------------------------| D|-------------------------------------------| A|-----2~~~----------------------------------| D|-------------------------------------------|
Composição: Colaboração e revisão: Renan Gonçalves

Utilizamos cookies para personalizar sua experiência. Ao acessar o site, você concorda com a nossa Política de Privacidade.