busca

I Started Joke

Bee Gees

Tom: G
   G
E|------------------------------------------------/
B|------------------------------------------------/
G|------------------------------------------------/
D|--0---------------------------------------------/
A|----3-2-0---------------------------------------/
E|----------3-------------------------------------/

     G     Bm    C/G      D7
E|--3-----2------0--------2--------------------------/
B|--3-----3------1--------1--------------------------/
G|--0---0-4------0--------2--------------------------/
D|--0--0--4------2-----2--0--------------------------/
A|--2-2---2------3----3---0--------------------------/
E|--3-----2------3--------X--------------------------/

Clipes

Cifra Club Pro

Aproveite o Cifra Club com benefícios exclusivos e sem anúncios
Cifra Club Pro
Aproveite o Cifra Club com benefícios exclusivos e sem anúncios