A7
12
X02020
A7/C#
1234
X4525X
B7(4)
34
X24252
B9
34
X24422
Bm
234
X24432
Bm/E
1234
XX2432
Bm7
34
X24232
C
123
X32010
D6(9)
1234
X5X455
Em
12
022000
Em/D
XX0000
Em7(9)
123
020032
F#m7
3
242222
F7M
123
1XX210
G
123
320003
G/A
123
X0543X
G7M
1234
3X443X
Tom: G
[Intro]


   F7M                    Em7(9)    
E|----0---0-----0-------------2--
B|----1---1-------1-----------3--
G|----2---2---------2---------0--
D|-------------------------------
A|--------------------------2----
E|-1--------1-1-------1---0------
     G/A
E|2---3------------------| 
B|3---2---3---3---3---3--| 
G|0---0---4---4---4---4--| 
D|--------5---5---5---5--| 
A|------0---0---0---0----| 
E|-----------------------| 


[Primeira Parte]


Parte 1 de 2
   D6(9)    A7/C#      B9    Bm    
E|-----5--------5---------------2-
B|-----5--------5--------2---3----
G|-----4--------0--------4---4----
D|-----------------------4---4----
A|-5------5-4------4---2----------
E|--------------------------------
  B9Bm    Bm7
E|----------------------| 
B|2--3------------------| 
G|4--4---4-2------------| 
D|4--4---4-4------------| 
A|2---------------------| 
E|----------------------| 



Parte 2 de 2
   Em       Em/D       A7/C#     
E|-----0--------0--------5--5--5-
B|-0---0--------0--------5--5--5-
G|-0------------0--------0--0--0-
D|-2------2-0------0-------------
A|---------------------4---------
E|-0-----------------------------
  A7
E|-----------------------| 
B|-----2--2--------------| 
G|-----0--0--------------| 
D|-----2--2--------------| 
A|0--0------0------------| 
E|-----------------------| 


[Variação]


Parte 1 de 2
   D6(9)    A7/C#      B9    Bm    
E|-----5--------5---------------2-
B|-----5--------5--------2---3--3-
G|-----4--------0--------4---4--4-
D|-----------------------4---4----
A|-5------5-4------4---2----------
E|--------------------------------
  B7(4) Bm
E|-------2--------------| 
B|-5-----3--------------| 
G|-2-----4--------------| 
D|-4--------------------| 
A|----------------------| 
E|----------------------| 



Parte 2 de 2
   Em      Em/D       A7/C#     A7
E|----0--------0--------5--5--5---
B|-0--0--------0--------5--5--5---
G|-0-----------0--------0--0--0---
D|-2-----2-0------0---------------
A|--------------------4---------0-
E|-0------------------------------

E|----------------------| 
B|---2------------------| 
G|---0------------------| 
D|---2------------------| 
A|-0---0-1-2------------| 
E|----------------------| 


D6(9)               A7/C#         
     Às vezes no silêncio da noite
B9  Bm  B9  Bm  Bm7

Em              Em/D         
  Eu fico imaginando nós dois
A7/C#   A7

D6(9)            A7/C#            
     Eu fico ali sonhando 
B9   Bm       B7(4) Bm
acordado,      jun - tan - do
Em            Em/D          A7/C#
  O antes o agora e o depois
  A7


[Segunda Parte]

[Passagem 1]


    G7M
E|-----2-0-----------2-0----------
B|-----3----3--------3---3--------
G|-----4------4------4-----4------
D|--------------4------------4----
A|--------------------------------
E|---3------3------3-----3--------


[Passagem 2] Bm/E E|-------------------------------- B|-----7-----7-----7-----7-----7-- G|-----7-----7-----7-----7-----7-- D|-----9-----9-----9-----9-----9-- A|-------------------------------- E|--0-----0-----0-----0-----0----- E|----------------------| B|----------------------| G|----------------------| D|----------------------| A|----------------------| E|0---------------------| Bm F#m7 Por que você me deixa tão solto? G7M Bm F#m7 Bm/E Por que você não cola em mim? Bm F#m7 G7M Tô me sentindo muito sozinho [Primeira Parte] D6(9) A7/C# Não sou nem quero ser o seu Bm dono Em Em/D É que um carinho às vezes cai A7/C# A7 bem D6(9) Eu tenho os meus desejos e A7/C# B9 Bm B7(4) Bm planos se - cre - tos Em Em/D Só abro pra você mais ninguém A7/C# A7 [Segunda Parte] Bm F#m7 G7M Porque você me esquece e some Bm F#m7 E se eu me interessar por alguém Bm/E Bm F#m7 G7M E se ela de repente me ganha [Refrão] Parte 1 de 4 D6(9) A7/C# G7M E|-5-5---5-5-------2-0------------ B|-5-5---5-5---3---3---3-----3---- G|-4-4---0-0---4---4-----4---4---- D|-------------4-----------4-4---- A|-5---5-4---4-------------------- E|-------------3-3-------3-----3-- Parte 2 de 4 Em Em/D C E|-0-0---0-----------0-0-----0--- B|-0-0---0-----------1--1------1- G|-0-0---0-----0-----0---0------- D|-----2-0---0-----0-2----2------ A|---------2-----2---3-----3----- E|-0----------------------------- E|3-0--------------------| B|----1------------------| G|------0----------------| D|--------2--------------| A|3----------------------| E|-----------------------| Parte 3 de 4 D6(9) A7/C# Bm7 G E|-5-5---5-5--------------------- B|-5-5---5-5---3-3-----------0-0- G|-4-4---0-0---4-4---4-2-----0-0- D|-------------4-4---4---4-2-0-0- A|-5---5-4---4-2---2------------- E|---------------------------3--- E|-----------------------| B|-----------------------| G|-----------------------| D|-----------------------| A|-----------------------| E|3----------------------| Parte 4 de 4 G/A D6(9) G/A E|--------5----------------------- B|-3-3----5----------3-3---------- G|-4-4----4----------4-4---------- D|-5-5---------------5-5---------- A|-0---0--5------0-0-----0-------- E|-------------------------------- D6(9) Quando a gente gosta é A7/C# G7M claro que a gente cuida Em Em/D Fala que me ama só que é da boca C pra fora D6(9) A7/C# Ou você me engana ou não está Bm Bm7 G madura G/A D6(9) G/A Onde está você agora D6(9) Quando a gente gosta é A7/C# G7M claro que a gente cuida Em Em/D Fala que me ama só que é da boca C pra fora D6(9) A7/C# Ou você me engana ou não está Bm G madura G/A Onde está você agora?
Composição: PeninhaColaboração e revisão: Thiago AlmeidaTiago ProvasiEdilson SilvaGustavo Munhoze mais 8
Videoaula SOZINHO - Caetano Veloso (aula de violão completa)

Utilizamos cookies para personalizar sua experiência. Ao acessar o site, você concorda com a nossa Política de Privacidade.