busca

Crucifixo

Católicas

Tom: D#
Intro: RIFF1 (Base: Fm Bb Eb G#m Fm G7 )

RIFF1
E|-----------------------------------------|
B|--8-8--11--11s13--11--9-8-9---11--11s13--|
G|-----------------------------------------|
D|-----------------------------------------|
A|-----------------------------------------|
E|-----------------------------------------|

E|--------------------------------|
B|--6-6--9--9s11--9-8-6--8-8h9-8--|
G|--------------------------------|
D|--------------------------------|
A|--------------------------------|
E|--------------------------------|

E|----------------------------------------------------------------------|
B|--3-3--6--6s9--8-6-4-6~~-6s9-8-6-4-6-6s8--3-6-3-6s8-8~~-8h9-8~~-------|
G|----------------------------------------------------------------------|
D|----------------------------------------------------------------------|
A|----------------------------------------------------------------------|
E|----------------------------------------------------------------------|

SOLO: Base: C7 Fm Bb Eb G#m Fm G7 Cm C7

E|-------------------------------|------------------------|
B|--9~~~~11h13---11---9--8--6~~--|-6--8--9--8--9--9s11----|
G|-------------------------------|------------------------|
D|-------------------------------|------------------------|
A|-------------------------------|------------------------|
E|-------------------------------|------------------------|

E|------------------------------------|
B|----11--13-13--11--9--8--8h9--8--6--|
G|------------------------------------|
D|------------------------------------|
A|------------------------------------|
E|------------------------------------|

E|-------------------------------------------|
B|--13b--13-11h13-11~~--11h13-11--9-8-6-8~~--|
G|-------------------------------------------|
D|-------------------------------------------|
A|-------------------------------------------|
E|-------------------------------------------|

E|------------------------------------------|-----------------------|
B|------------------------------6-8-9--11b--|--9-8-6----------------|
G|-----------------------5-7-9--------------|---------9-7-5--7~~----|
D|---------------6-8-10---------------------|-----------------------|
A|-------6-8-10-----------------------------|-----------------------|
E|-4-6-8------------------------------------|-----------------------|

Cm             Fm
Saí a procurar alguém, algum lugar
     G7             Cm
Onde eu pudesse ter razão para viver
                     Fm
Eu não podia mais continuar assim
G7                  Cm
Vivendo sem saber o que fazer de mim
  G7                Cm
A minha solidão não suportava mais
    G7                  Cm
Nem mesmo uma canção me devolvia a paz
   G7             Cm
Eu me desiludi, pensei em desistir
   G7                Cm
Nenhuma esperança eu tinha
   G7                  Cm
No quarto então fiquei chorando sem saber
       G7                  Cm    C7
O amanhã que eu tinha pra viver

                        Fm
Mas de repente na parede eu vi
Bb                            Eb
Você abrindo os braços para mim
G#m               Fm
E alguma coisa em seu olhar
G7                 Cm
Mudou tudo dentro de mim
C7                 Fm
E uma alegria veio então
Bb                        Eb
Encher de paz todo meu coração
G#m                  Fm
Trazendo um motivo uma razão
G7                Cm
Pra nunca mais ficar assim

   G7             Cm
Eu me desiludi, pensei em desistir
   G7                Cm
Nenhuma esperança eu tinha
   G7                  Cm
No quarto então fiquei chorando sem saber
       G7                   Cm    C7
O amanhã que eu tinha para viver

(Refrão)
(SOLO)
(Refrão)

Clipes

Cifra Club Pro

Aproveite o Cifra Club com benefícios exclusivos e sem anúncios
Cifra Club Pro
Aproveite o Cifra Club com benefícios exclusivos e sem anúncios