busca

Senhor, Põe Teus Anjos Aqui

Católicas

Tom: D
[Intro] 

  D                                     A
E|--2-2-2-2-3-2-0-2------2-2-2-2-3-2-0-0----|
B|-3----------------3---3----------------2--|
G|------------------------------------------|
D|------------------------------------------|
A|------------------------------------------|
E|------------------------------------------|

     A7        A      A7               D
E|----3-3--3-2-0-3-3--5-9-7--------7--------|
B|2-5----------------------10-8-10--10-7----|
D|------------------------------------------|
A|------------------------------------------|
E|------------------------------------------|

   D                   D7            G
E|-2-2-2-2-3-0-2-------------------2-3------|
B|3---------------3--3-2-0-0-2-3-5----------|
G|------------------------------------------|
D|------------------------------------------|
A|------------------------------------------|
E|------------------------------------------|

  D          A                  D
E|3-3-0-0-2-3-2----5-9-7--------------------|
B|-------------3---------10-8-7-------------|
D|------------------------------9-7---------|
G|------------------------------------------|
A|------------------------------------------|
E|------------------------------------------|

D
Senhor, põe Teus anjos aqui
                        A
Senhor, põe Teus anjos aqui
        A7           A      A7                    D    
Com a espada desembainhada, Senhor, Põe Teus Anjos aqui
    D                        D7               G
Não deixes que o inimigo escarneça e zombe de nós
                        D        A                  D
Cobre, Senhor, com Teu sangue Senhor, põe Teus anjos aqui

D
Senhor, põe Teus anjos lá fora
                             A
Senhor, põe Teus anjos lá fora
     A7           A      A7                    D    
Com a espada desembainhada, Senhor, põe Teus anjos aqui
    D                        D7               G
Não deixes que o inimigo escarneça e zombe de nós
                        D        A                  D
Cobre, Senhor, com Teu sangue Senhor, põe Teus anjos aqui

D
Senhor, põe Teus anjos na rua
                           A
Senhor, põe Teus anjos na rua
     A7           A      A7                    D    
Com a espada desembainhada, Senhor, põe Teus anjos aqui
    D                        D7               G
Não deixes que o inimigo escarneça e zombe de nós
                        D        A                  D
Cobre, Senhor, com Teu sangue Senhor, põe Teus anjos aqui

D                             
Senhor, põe Teus anjos lá em casa
                              A
Senhor, põe Teus anjos lá em casa
     A7           A      A7                    D    
Com a espada desembainhada, Senhor, põe Teus anjos aqui
    D                        D7               G
Não deixes que o inimigo escarneça e zombe de nós
                        D        A                  D
Cobre, Senhor, com Teu sangue Senhor, põe Teus anjos aqui

D
Senhor, põe Teus anjos na rádio
                            A
Senhor, põe Teus anjos na rádio
     A7           A      A7                    D    
Com a espada desembainhada, Senhor, põe Teus anjos aqui
    D                        D7               G
Não deixes que o inimigo escarneça e zombe de nós
                        D        A                  D
Cobre, Senhor, com Teu sangue Senhor, põe Teus anjos aqui

Clipes

Cifra Club Pro

Aproveite o Cifra Club com benefícios exclusivos e sem anúncios
7 dias grátis
Cifra Club Pro
Aproveite o Cifra Club com benefícios exclusivos e sem anúncios
7 dias grátis