Senhor, Põe Teus Anjos Aqui

Católicas

A
123
X02220
A7
12
X02020
D
123
XX0232
D7
123
XX0212
G
123
320003
Tom: G
[Intro] 

#1t1#  D                                     A
#1t2#E|--2-2-2-2-3-2-0-2------2-2-2-2-3-2-0-0----|
B|-3----------------3---3----------------2--|
G|------------------------------------------|
D|------------------------------------------|
A|------------------------------------------|
E|------------------------------------------|#/1t2##/1t1#

#2t1#     A7        A      A7               D
#2t2#E|----3-3--3-2-0-3-3--5-9-7--------7--------|
B|2-5----------------------10-8-10--10-7----|
D|------------------------------------------|
A|------------------------------------------|
E|------------------------------------------|#/2t2##/2t1#

#3t1#   D                   D7            G
#3t2#E|-2-2-2-2-3-0-2-------------------2-3------|
B|3---------------3--3-2-0-0-2-3-5----------|
G|------------------------------------------|
D|------------------------------------------|
A|------------------------------------------|
E|------------------------------------------|#/3t2##/3t1#

#4t1#  D          A                  D
#4t2#E|3-3-0-0-2-3-2----5-9-7--------------------|
B|-------------3---------10-8-7-------------|
D|------------------------------9-7---------|
G|------------------------------------------|
A|------------------------------------------|
E|------------------------------------------|#/4t2##/4t1#

D
Senhor, põe Teus anjos aqui
                        A
Senhor, põe Teus anjos aqui
        A7           A      A7                    D    
Com a espada desembainhada, Senhor, Põe Teus Anjos aqui
    D                        D7               G
Não deixes que o inimigo escarneça e zombe de nós
                        D        A                  D
Cobre, Senhor, com Teu sangue Senhor, põe Teus anjos aqui

D
Senhor, põe Teus anjos lá fora
                             A
Senhor, põe Teus anjos lá fora
     A7           A      A7                    D    
Com a espada desembainhada, Senhor, põe Teus anjos aqui
    D                        D7               G
Não deixes que o inimigo escarneça e zombe de nós
                        D        A                  D
Cobre, Senhor, com Teu sangue Senhor, põe Teus anjos aqui

D
Senhor, põe Teus anjos na rua
                           A
Senhor, põe Teus anjos na rua
     A7           A      A7                    D    
Com a espada desembainhada, Senhor, põe Teus anjos aqui
    D                        D7               G
Não deixes que o inimigo escarneça e zombe de nós
                        D        A                  D
Cobre, Senhor, com Teu sangue Senhor, põe Teus anjos aqui

D                             
Senhor, põe Teus anjos lá em casa
                              A
Senhor, põe Teus anjos lá em casa
     A7           A      A7                    D    
Com a espada desembainhada, Senhor, põe Teus anjos aqui
    D                        D7               G
Não deixes que o inimigo escarneça e zombe de nós
                        D        A                  D
Cobre, Senhor, com Teu sangue Senhor, põe Teus anjos aqui

D
Senhor, põe Teus anjos na rádio
                            A
Senhor, põe Teus anjos na rádio
     A7           A      A7                    D    
Com a espada desembainhada, Senhor, põe Teus anjos aqui
    D                        D7               G
Não deixes que o inimigo escarneça e zombe de nós
                        D        A                  D
Cobre, Senhor, com Teu sangue Senhor, põe Teus anjos aqui
Composição: Marcelo RossiColaboração e revisão: Murilo Luso