Smoke on The Water

Deep Purple

Ab5
134
466XXX
C5
134
X355XX
F5
134
133XXX
G5
134
355XXX
Tom: G
[Intro]

#1t1##1t2#E|-----------------------------------------|
B|-----------------------------------------|
G|---3-5----3-6-5----3-5--3----------------| (6x)
D|-5-3-5--5-3-6-5--5-3-5--3--5-------------|
A|-5------5--------5---------5-------------|
E|-----------------------------------------|#/1t2##/1t1#

[Primeira Parte]

   G5
We all came out to Montreux
               F5    G5
On the lake Geneva shoreline
To make records with a mobile
F5            G5
   We didn't have much time
Frank Zappa & the Mothers
                   F5    G5
Were at the best place around
But some stupid with a flare gun
               F5      G5
Burned the place to the ground

[Refrão]

  C5          Ab5
Smoke on the water
 G5
Fire in the sky
  C5          Ab5
Smoke on the water

#2t1##2t2#E|-----------------------------------------|
B|-----------------------------------------|
G|---3-5----3-6-5----3-5--3----------------| (2x)
D|-5-3-5--5-3-6-5--5-3-5--3--5-------------|
A|-5------5--------5---------5-------------|
E|-----------------------------------------|#/2t2##/2t1#

[Segunda Parte]

G5
   They burned down the gambling house
                F5     G5
It died with an awful sound
Funky & Claude was running in and out
F5          G5
   Pulling kids out of the ground

When it all was over
                 F5          G5
We had to find another place
Swiss time was running out
                         F5           G5
It seemed that we would lose the race

[Refrão]

  C5          Ab5
Smoke on the water
 G5
Fire in the sky
  C5          Ab5
Smoke on the water

#3t1##3t2#E|-----------------------------------------|
B|-----------------------------------------|
G|---3-5----3-6-5----3-5--3----------------| (2x)
D|-5-3-5--5-3-6-5--5-3-5--3--5-------------|
A|-5------5--------5---------5-------------|
E|-----------------------------------------|#/3t2##/3t1#

[Solo]

Parte 1 de 10

#4t1##4t2#E|---------------------------------------------------|
B|-----------b15r13p11-----11b-----------------------|
G|----10-12~-----------12~---------------------------|
D|-12------------------------------------------------|
A|---------------------------------------------------|
E|---------------------------------------------------|#/4t2##/4t1#

Parte 2 de 10

#5t1##5t2#E|---------------------------------------------------|
B|----------11-11b13--11-10-8-10-8h10p8----8---------|
G|----10-12-----------------------------10-----------|
D|-12------------------------------------------------|
A|---------------------------------------------------|
E|---------------------------------------------------|#/5t2##/5t1#

#6t1##6t2#E|---------------------------------------------------|
B|---------------------------------------------------|
G|-10-8-10-10-12-10-12~------------------------------|
D|---------------------------------------------------|
A|---------------------------------------------------|
E|---------------------------------------------------|#/6t2##/6t1#

Parte 3 de 10

#7t1##7t2#E|---------------------------------------------------|
B|----11-13-11-13~13~----11----11-13-11-10-----------|
G|-12-----------------12----12-------------12-11-10--|
D|---------------------------------------------------|
A|---------------------------------------------------|
E|---------------------------------------------------|#/7t2##/7t1#

#8t1##8t2#E|---------------------------------------------------|
B|---------------------------------------------------|
G|-------10------------------------------------------|
D|-13-10----13-12p10---------------------------------|
A|-------------------13-12-10------------------------|
E|---------------------------------------------------|#/8t2##/8t1#

Parte 4 de 10

#9t1##9t2#E|---------------------------------------------------|
B|---------------------------------------------------|
G|----------8-7--------------------------------------|
D|-8-7-10-8-----10-8b10r8--10-8-7-8-7-8-7-5----------|
A|---------------------------------------------------|
E|---------------------------------------------------|#/9t2##/9t1#

Parte 5 de 10

#10t1##10t2#E|---------------------------------------------------|
B|---6-8-6-8-8-6-------------------------------------|
G|-7-------------7-6-5-------5-3-5b7-5b7-5b7-5b7-----|
D|---------------------8-7-5-------------------------|
A|---------------------------------------------------|
E|---------------------------------------------------|#/10t2##/10t1#

Parte 6 de 10

#11t1##11t2#E|-------------6-8b10~-8b10-8-6-8--------------------|
B|---6-8---6-8--------------------8~-----------------|
G|-7-----7-------------------------------------------|
D|---------------------------------------------------|
A|---------------------------------------------------|
E|---------------------------------------------------|#/11t2##/11t1#

Parte 7 de 10

#12t1##12t2#E|---------------------------------------------------|
B|----11-----11-13-11----13-11----13-11-13-15-16-----|
G|-12-----12----------12-------12--------------------|
D|---------------------------------------------------|
A|---------------------------------------------------|
E|---------------------------------------------------|#/12t2##/12t1#

#13t1##13t2#E|---------------------------------------------------|
B|-18-18b20~-----------------------------------------|
G|---------------------------------------------------|
D|---------------------------------------------------|
A|---------------------------------------------------|
E|---------------------------------------------------|#/13t2##/13t1#

Parte 8 de 10

#14t1##14t2#E|----------15---------------------------------------|
B|-18b20-18----18-18b20--18b20-18-15-13-15~----------|
G|---------------------------------------------------|
D|---------------------------------------------------|
A|---------------------------------------------------|
E|---------------------------------------------------|#/14t2##/14t1#

Parte 9 de 10

#15t1##15t2#E|---------------------------------------------------|
B|-----6----------------------13-11-13-13b15---------|
G|-5b7---5b6r5p3-5-3----11/12------------------------|
D|-------------------5~------------------------------|
A|---------------------------------------------------|
E|---------------------------------------------------|#/15t2##/15t1#

Parte 10 de 10

#16t1##16t2#E|---------------------------------------------------|
B|-b15-b15-b15-b15-b15-b15-b15-b15-r14-r14-r14-r13---|
G|---------------------------------------------------|
D|---------------------------------------------------|
A|---------------------------------------------------|
E|---------------------------------------------------|#/16t2##/16t1#

#17t1##17t2#E|---------------------------------------------------|
B|-13------------------------------------------------|
G|----10b12~-----------------------------------------|
D|---------------------------------------------------|
A|---------------------------------------------------|
E|---------------------------------------------------|#/17t2##/17t1#

#18t1##18t2#E|-----------------------------------------|
B|-----------------------------------------|
G|---3-5----3-6-5----3-5--3----------------| (2x)
D|-5-3-5--5-3-6-5--5-3-5--3--5-------------|
A|-5------5--------5---------5-------------|
E|-----------------------------------------|#/18t2##/18t1#

[Terceira Parte]

G5
   We ended up at the Grand Hotel
       F5      G5
It was empty, cold and bare
But with the Rolling Trucks Stones 
Thing just outside
F5              G5
   We made our music there

With a few red lights an' a few old beds
            F5       G5
We made a place to sweat
No matter what we get out of this
       F5               G5
I know,   I know we'll never forget

[Refrão]

  C5          Ab5
Smoke on the water
 G5
Fire in the sky
  C5          Ab5
Smoke on the water

#19t1##19t2#E|-----------------------------------------|
B|-----------------------------------------|
G|---3-5----3-6-5----3-5--3----------------|
D|-5-3-5--5-3-6-5--5-3-5--3--5-------------|
A|-5------5--------5---------5-------------|
E|-----------------------------------------|#/19t2##/19t1#
Composição: Ian Gillan / Ian Paice / Jon Lord / Ritchie Blackmore / Roger GloverColaboração e revisão: Lucas KappaunBruno PelegriniValerio BobsinGabriel Caçadore mais 19
Videoaula Smoke On the Water (aula de guitarra completa)