busca

Convite Ao Bem

Diamba

Tom: A#
B||----------------------|----------------------|------------------------|
G||----------------------|----------------------|------------------------|
D||----------------------|----------------------|------------------------|
A||----------5-5-5-------|-3-5-6-5-3-3-5-6-5-3--|------------------------|
E||3-5-6-5-3-------------|---------------------6|------------------------|

E||----------------------|----------------------|------------------------|
B||----------------------|----------------------|------------------------|
G||----------------------|----------------------|------------------------|
D||----------------------|----------------------|------------------------|
A||----------5-5-5-------|-3-5-6-5-3-3-5-6-5-3--|------------------------|
E||3-5-6-5-3-------------|---------------------6|-3----------------------|


  Gm7       Dm7            Cm7
Existe alguém a esperar?
  Gm7         Dm7            Cm7
Compreensão, paciência e fé. Muita fé.
  Gm7        Dm7          Cm7   
Na paz em si na união    
  Gm7         Dm7            Cm7
Vestígios de evolução
  Gm7                    Dm7     Cm7 
Passe o tempo convidando
  Gm7         Dm7       Cm7      
Atitude construtiva, 

De ti pra si pro mundo

Refrão 
Gm7                Dm7               Cm7
De ti pra si pra mundo (2X)

Clipes

Cifra Club Pro

Aproveite o Cifra Club com benefícios exclusivos e sem anúncios
Cifra Club Pro
Aproveite o Cifra Club com benefícios exclusivos e sem anúncios