C
123
X32010
D
123
XX0232
F
234
133211
G
123
320003
Tom: G
[Intro]  G  C  F  C  G

#1t1##1t2#E|--10-10-10-10-8-7-7h8-7-------------------|
B|------------------------8/10--12----------|
G|-7----------------------------------------|
D|------------------------------------------|
A|------------------------------------------|
E|------------------------------------------|#/1t2##/1t1#

#2t1##2t2#E|-10-10-10-10-8-7-7h8-7--------------------|
B|-----------------------10-8---------------|
G|-----------------------------7-9-7h9------|
D|------------------------------------------|
A|------------------------------------------|
E|------------------------------------------|#/2t2##/2t1#

#3t1##3t2#E|-7-7h8-7----------------------------------|
B|---------10-8-10-10/12--8-10/12-12-10/8-8-|
G|------------------------------------------|
D|------------------------------------------|
A|------------------------------------------|
E|------------------------------------------|#/3t2##/3t1#

#4t1##4t2#E|------------------------------------------|
B|------------------------------------------|
G|-7h9-7------------------------------------|
D|------------------------------------------|
A|------------------------------------------|
E|------------------------------------------|#/4t2##/4t1#

[Primeira Parte]

   G
Você sempre fez os meus sonhos

Sempre soube dos meus segredos
              C    F  C
Já faz muito tempo
                         G
Eu nem me lembro quanto tempo faz

O meu coração não sabe contar os dias

E a minha cabeça já está tão vazia
        C          F  C
Mas a primeira vez
          G  
Ainda me lembro bem

[Pré-Refrão]

C            D              G
  Talvez eu seja no seu passado 
          C    
Mais uma página
G           C                  D
  Que foi, do seu diário arrancada

[Refrão]

 C              D
Sonho, choro e sinto
     G       D         C 
Que resta alguma esperança
G            C                  D
  Saudade, quero arrancar essa página
          G
Da minha vida

[Solo] G

#5t1##5t2#E|-10-10-10-10-10-10-8-7-7h8----------------|
B|---------------------------8-8------------|
G|------------------------------------------|
D|------------------------------------------|
A|------------------------------------------|
E|------------------------------------------|#/5t2##/5t1#

#6t1##6t2#E|-10-10-10-...-12-12...--------------------|
B|------------------------------------------|
G|------------------------------------------|
D|------------------------------------------|
A|------------------------------------------|
E|------------------------------------------|#/6t2##/6t1#

#7t1##7t2#E|-12-12-12-10-8-7h8p7-7h8-7----------------|
B|------------------------------------------|
G|------------------------------------------|
D|------------------------------------------|
A|------------------------------------------|
E|------------------------------------------|#/7t2##/7t1#

#8t1##8t2#E|-7-7h8-7----------------------------------|
B|---------10-8-----------------------------|
G|--------------7h9-7h9-7--4h5-4------------|
D|------------------------------------------|
A|------------------------------------------|
E|------------------------------------------|#/8t2##/8t1#

#9t1##9t2#E|------------------------------------------|
B|------------------------------------------|
G|-0-0h2-0----------------------------------|
D|---------2-0------------------------------|
A|-------------0h2-0------------------------|
E|-------------------3----------------------|#/9t2##/9t1#

[Primeira Parte]

   G
Você sempre fez os meus sonhos

Sempre soube dos meus segredos
              C    F  C
Já faz muito tempo
                         G
Eu nem me lembro quanto tempo faz

O meu coração não sabe contar os dias

E a minha cabeça já está tão vazia
        C          F  C
Mas a primeira vez
          G       
Ainda me lembro bem

[Pré-Refrão]

C            D              G
  Talvez eu seja no seu passado 
          C     
Mais uma página
G           C                  D
  Que foi, do seu diário arrancada

[Refrão]

 C              D
Sonho, choro e sinto
     G       D         C 
Que resta alguma esperança
G            C                  D
  Saudade, quero arrancar essa página
          G
Da minha vida

[Final] G
Composição: Eduardo CostaColaboração e revisão: Aline CruzLucas KappaunJulio MirandaEzequiel Santose mais 2