Esperando Na Janela

Gilberto Gil

Principal
A
123
X02220
B
234
X24442
B2
34
X24422
B7
1234
X21202
C#m
234
X46654
E
123
022100
F#m
34
244222
1234
XX3434
G#m
34
466444
Tom: G
[Intro] B2  E  B2  E
        B2  E  B2  E


   B2                 E
E|--------------------------------
B|----2---2-----2---2------0---0--
G|----4---4-----4---4------1---1--
D|----4---4-----4---4------2---2--
A|-2---------2---------------2-2--
E|------2-2-------2-2---0---------

E|----------| 
B|--0---0---| 
G|--1---1---| 
D|--2---2---| 
A|----2-2---| 
E|0---------| 


[Solo]

Parte 1 De 4


E|----------------------5-5-4-4---
B|---5--7-5---------------------7-
G|-4----------4--6-4--------------
D|----------6---------------------
A|--------------------------------
E|--------------------------------

E|----4----------------| 
B|7-5------------------| 
G|---------------------| 
D|---------------------| 
A|---------------------| 
E|---------------------| 


Parte 2 De 4


E|----------------------5-5-4-4---
B|---5--7-5---------------------7-
G|-4----------4--6-4--------------
D|----------6---------------------
A|--------------------------------
E|--------------------------------

E|---------------------| 
B|7-5-5----------------| 
G|---------------------| 
D|---------------------| 
A|---------------------| 
E|---------------------| 


Parte 3 De 4


E|----12--14-12---------------17-
B|-12--------------12--14-12-----
G|--------------13---------------
D|-------------------------------
A|-------------------------------
E|-------------------------------

E|17-16-16-14-14----16--| 
B|---------------17-----| 
G|----------------------| 
D|----------------------| 
A|----------------------| 
E|----------------------| 


Parte 4 De 4


E|----12--14-12---------------17-
B|-12--------------12--14-12-----
G|--------------13---------------
D|-------------------------------
A|-------------------------------
E|-------------------------------

E|17-16-16-14-14--------| 
B|---------------17-17--| 
G|----------------------| 
D|----------------------| 
A|----------------------| 
E|----------------------| 


[Primeira Parte]


Parte 1 de 2  
   B2                 E
E|--------------------------------
B|----2---2-----2---2------0---0--
G|----4---4-----4---4------1---1--
D|----4---4-----4---4------2---2--
A|-2---------2---------------2-2--
E|------2-2-------2-2---0---------

E|----------| 
B|--0---0---| 
G|--1---1---| 
D|--2---2---| 
A|----2-2---| 
E|0---------| 



Parte 2 de 2
   B2                   E   A   
E|----------------------0-------0-
B|----2---2-----2---2---0---2---0-
G|----4---4-----4---4---1---2-1-1-
D|----4---4-----4---4---2---2---2-
A|-2---------2----------2---0---2-
E|------2-2-------2-2---0-------0-


                             B2
Ainda me lembro do seu caminhar
                                  E
Seu jeito de olhar, eu me lembro bem
                             B2
Fico querendo sentir o seu cheiro
                         E
É daquele jeito que ela tem

                               B2
O tempo todo eu fico feito tonto
                                E
Sempre procurando, mas ela não vem
                           B2
E esse aperto no fundo do peito

Desses que o sujeito
               E
Não pode aguentar, ah
                             B2
E esse aperto aumenta meu desejo
Eu não vejo a hora de poder lhe 
   E
falar

( A  E )

[Refrão]

E|-------------------------------- B|--0----------------------------- G|--1----------------------------- D|--0----------------------------- A|-------------------------------- E|--1----------------------------- E A E E|--0-------0--------------------- B|--0---2---0--------------------- G|--1---2-1-1--------------------- D|--2---2---2--------------------- A|--2---0---2--------------------- E|--0-------0--------------------- F#m Por isso eu vou na casa dela, ai, B7 ai G#m C#m Falar do meu amor pra ela, vai F#m B7 Tá me esperando na janela, ai, ai E Não sei se vou me segurar F#m Por isso eu vou na casa dela, ai, B7 ai G#m C#m Falar do meu amor pra ela, vai F#m B7 Tá me esperando na janela, ai, ai E A E Não sei se vou me segurar ( B2 E B2 E ) ( B2 E B2 E ) [Primeira Parte] B2 Ainda me lembro do seu caminhar E Seu jeito de olhar, eu me lembro bem B2 Fico querendo sentir o seu cheiro E É daquele jeito que ela tem B2 O tempo todo eu fico feito tonto E Sempre procurando, mas ela não vem B2 E esse aperto no fundo do peito Desses que o sujeito E Não pode aguentar, ah B2 E esse aperto aumenta meu desejo Eu não vejo a hora de poder lhe E falar ( A E ) [Refrão] F#m Por isso eu vou na casa dela, ai, B7 ai G#m C#m Falar do meu amor pra ela, vai F#m B7 Tá me esperando na janela, ai, ai E Não sei se vou me segurar F#m Por isso eu vou na casa dela, ai, B7 ai G#m C#m Falar do meu amor pra ela, vai F#m B7 Tá me esperando na janela, ai, ai E A E Não sei se vou me segurar [Solo Final] B E B E [Base] Parte 1 de 2 B2 E E|-------------------------------- B|----2---2-----2---2------0---0-- G|----4---4-----4---4------1---1-- D|----4---4-----4---4------2---2-- A|-2---------2---------------2-2-- E|------2-2-------2-2---0--------- E|----------| B|--0---0---| G|--1---1---| D|--2---2---| A|----2-2---| E|0---------| Parte 2 de 2 B2 E E|-------------------------------- B|----2---2-----2---2------0---0-- G|----4---4-----4---4------1---1-- D|----4---4-----4---4------2---2-- A|-2---------2---------------2-2-- E|------2-2-------2-2---0--------- E|--------0-| B|--0---0-0-| G|--1---1-1-| D|--2---2-2-| A|----2-2-2-| E|0-------0-| [Solo] Parte 1 De 2 E|----------------------5-5-4-4--- B|---5--7-5---------------------7- G|-4----------4--6-4-------------- D|----------6--------------------- A|-------------------------------- E|-------------------------------- E|----4----------------| B|7-5------------------| G|---------------------| D|---------------------| A|---------------------| E|---------------------| Parte 2 De 2 E|----12--14-12---------------17- B|-12--------------12--14-12----- G|--------------13--------------- D|------------------------------- A|------------------------------- E|------------------------------- E|17-16-16-14-14--------| B|---------------17-17--| G|----------------------| D|----------------------| A|----------------------| E|----------------------| [Refrão Final] F#m Por isso eu vou na casa dela, ai, B7 ai G#m C#m Falar do meu amor pra ela, vai F#m B7 Tá me esperando na janela, ai, ai E Não sei se vou me segurar F#m Por isso eu vou na casa dela, ai, B7 ai G#m C#m Falar do meu amor pra ela, vai F#m B7 Tá me esperando na janela, ai, ai E A E Não sei se vou me segurar
Composição: Manuca Almeida / Raimundinho Do Acordeon / Targino GondimColaboração e revisão: Thiago Almeida
Videoaula ESPERANDO NA JANELA (aula de violão completa)