Don't Stop Believin'

Journey

A
123
X02220
B
234
X24442
B4
234
X24452
C#m
234
X46654
E
123
022100
G#m
34
466444
Tom: G
Introdução: E  B  C#m  A
            E  B  G#m  A

Piano:

#1t1#        E
#1t2#E|--7---7---7---7------------------|
B|--5---5---5---5------------------|
G|----4---4---4---4----------------|
D|---------------------------------|
A|---------------------------------|
E|---------------------------------|#/1t2##/1t1#

#2t1#        B
#2t2#E|--7---7---7---7------------------|
B|--7---7---7---7------------------|
G|----4---4---4---4----------------|
D|---------------------------------|
A|---------------------------------|
E|---------------------------------|#/2t2##/2t1#

#3t1#        C#m
#3t2#E|--7---7---7---7------------------|
B|--5---5---5---5------------------|
G|----4---4---4---4----------------|
D|---------------------------------|
A|---------------------------------|
E|---------------------------------|#/3t2##/3t1#

#4t1#        A
#4t2#E|--5---5---5---5------------------|
B|--2---2---2---2------------------|
G|----2---2---2---2----------------|
D|---------------------------------|
A|---------------------------------|
E|---------------------------------|#/4t2##/4t1#

#5t1#        E
#5t2#E|--7---7---7---7------------------|
B|--5---5---5---5------------------|
G|----4---4---4---4----------------|
D|---------------------------------|
A|---------------------------------|
E|---------------------------------|#/5t2##/5t1#
 
#6t1#        B
#6t2#E|--7---7---7---7------------------|
B|--7---7---7---7------------------|
G|----4---4---4---4----------------|
D|---------------------------------|
A|---------------------------------|
E|---------------------------------|#/6t2##/6t1#

#7t1#        G#m
#7t2#E|--7---7---7---7------------------|
B|--4---4---4---4------------------|
G|----4---4---4---4----------------|
D|---------------------------------|
A|---------------------------------|
E|---------------------------------|#/7t2##/7t1#

#8t1#        A
#8t2#E|--5---5---5---5------------------|
B|--2---2---2---2------------------|
G|----2---2---2---2----------------|
D|---------------------------------|
A|---------------------------------|
E|---------------------------------|#/8t2##/8t1#



 
Primeira Parte:
 
E      B                 C#m
  Just a small town girl
          A              E
Livin' in a lonely world
           B
She took the midnight train 
      G#m  A   E
Going anywhere


  H.N   .

#9t1##9t2#E|------7-----------------------------------------------|
B|-12---------------------------------------------------|
G|------------------------------------------------------|
D|------------------------------------------------------|
A|------------------------------------------------------|
E|------------------------------------------------------|#/9t2##/9t1#


        B       C#m
Just a city boy
                    A            E
Born and raised in South Detroit
          B
He took the midnight train 
      G#m  A
Going anywhere

  H.N  .

#10t1##10t2#E|-7----------------------------------------------------|
B|-----12-----------------------------------------------|
G|------------------------------------------------------|
D|------------------------------------------------------|
A|------------------------------------------------------|
E|------------------------------------------------------|#/10t2##/10t1#


( E  B  C#m  A )

( E  B  G#m  A )

   P.M.  .  .  .     .  .  .     .  .  .     .  .

#11t1##11t2#E|------------------------------------------------------|
B|-17p16-------17p16-------17p16-------17p16------------|
G|-------18-16-------18-16-------18-16-------18-16------| 
D|------------------------------------------------------|
A|------------------------------------------------------|
E|------------------------------------------------------|#/11t2##/11t1#
(repete acelerando)

#12t1##12t2#E|-----------------------------------------19-------19--|
B|-17p16-------17p16-------17p16-----------19b21~--b21\-|
G|-------18p16-------18p16-------18p16------------------|
D|------------------------------------------------------|
A|------------------------------------------------------|
E|------------------------------------------------------|#/12t2##/12t1#


E                 B        C#m
  A singer in a smoky room
                        A           E
The smell of wine and cheap perfume
                      B
For a smile, they can   share the night
        G#m           A
It goes on and on and on and on


Segunda Parte:

#13t1#        B   A     B   E     B   E     B   E
#13t2#E|---------------------------------------|  
B|--7---5-----7---9-----7---9-----7---9--|
G|--8---6-----8---9-----8---9-----8---9--|   (3x) 
D|--9---7-----9---9-----9---9-----9---9--|   
A|---------------------------------------|
E|---------------------------------------|   #/13t2##/13t1#


#14t1#        B   A     B   E     B   B4    B B4  A
#14t2#E|-----------------------------------------|  
B|--7---5-----7---9-----7---9-----7--9--5--|
G|--8---6-----8---9-----8---9-----8--9--6--|
D|--9---7-----9---9-----9---7-----9--7--7--|   
A|-----------------------------------------|
E|-----------------------------------------|  #/14t2##/14t1#


Outro: (pode ser tocado por uma segunda guitarra junto ao anterior)


Strangers, waiting...

#15t1#        B   A     B   E     B   E     B   E
#15t2#E|--11--9-----11--12----11--12----11--12--|
B|--12--10----12--12----12--12----12--12--|
G|--11--9-----11--13----11--13----11--13--|   (3x) 
D|----------------------------------------|   
A|----------------------------------------|
E|----------------------------------------|   #/15t2##/15t1#



#16t1#        B   A     B   E     B   B4    B   B4  A
#16t2#E|--11--9-----11--12----11--12----11--12--9---|
B|--12--10----12--12----12--12----12--12--10--|
G|--11--9-----11--13----11--11----11--11--9---|
D|--------------------------------------------|
A|--------------------------------------------|
E|--------------------------------------------|#/16t2##/16t1#


 B   A     B  E     B  E
Strangers waiting
              B      E
Up and down the boulevard
       B  A     B    E        B    E    B  E
Their shadows searching in the night

B      A       B    E    B    E
Streetlights, people
                 B     E
Living just to find emotion
B  A    B    E              B  B4  B B4 A
Hiding somewhere in the night



Terceira Parte:


#17t1#       E           B            C#m          A
#17t2#E|----0---------------------------------------------|
B|----0--------4--------------5-5-------------------|
G|----1--------4--4-----------6-6---------6-6-------|
D|--2----------4--4-----------6-6---------7-7-------|
A|--2----------2--2-(2)--4/6--4-----6-7---7-7--6-7--|
E|--0---0-2h4-----------------------------5---------|#/17t2##/17t1#


#18t1#       E           B            G#m          A
#18t2#E|----0---------------------------------------------|
B|----0--------4------------------------------------|
G|----1--------4--4-----------4-4-4-------6-6-------|
D|--2----------4--4-----------6-6-6-------7-7-------|
A|--2----------2--2-(2)--4/6--6-6-6-------7-7--6-7--|
E|--0---0-2h4-----------------4---4-------5---------|#/18t2##/18t1#



E                  B          C#m
  Working hard to get my fill
          A                E
Everybody   wants a thrill
                    B
Payin' anything to roll the dice
     G#m       A   E
Just one more time

              B                C#m
Some will win   some will lose
                   A             E
Some were born to sing the blues
           B
Oh, the movie never ends
        G#m           A
It goes on and on and on and on


Quarta Parte:


#19t1#        B   A     B   E     B   E     B   E
#19t2#E|---------------------------------------|  
B|--7---5-----7---9-----7---9-----7---9--|
G|--8---6-----8---9-----8---9-----8---9--|   (3x) 
D|--9---7-----9---9-----9---9-----9---9--|   
A|---------------------------------------|
E|---------------------------------------|   #/19t2##/19t1#


#20t1#        B   A     B   E     B   B4    B B4  A
#20t2#E|-----------------------------------------|  
B|--7---5-----7---9-----7---9-----7--9--5--|
G|--8---6-----8---9-----8---9-----8--9--6--|   
D|--9---7-----9---9-----9---7-----9--7--7--|   
A|-----------------------------------------|
E|-----------------------------------------|  #/20t2##/20t1#


 B   A     B  E     B  E
Strangers waiting
              B      E
Up and down the boulevard
       B  A     B    E        B    E    B  E
Their shadows searching in the night

B      A       B    E    B    E
Streetlights, people
                 B     E
Living just to find emotion
B  A    B    E              B  B4  B B4 A
Hiding somewhere in the night



Solo: E  B  C#m  A
      E  B  G#m  A


#21t1##21t2#E|-(14)-16b18--16~-14--16b18--16~--16-16b18--14---------------|
B|----------------------------------------------17-16-17--14~-|
G|------------------------------------------------------------|
D|------------------------------------------------------------|
A|------------------------------------------------------------|
E|------------------------------------------------------------|#/21t2##/21t1#


#22t1##22t2#E|------16b18-16~-(14)-16b18--16~-16~--14---17b20-------(21t...)-r17-|
B|-------------------------------------------------17----------------|
G|-16-14-------------------------------------------------------------|
D|-------------------------------------------------------------------|
A|-------------------------------------------------------------------|
E|-------------------------------------------------------------------|#/22t2##/22t1#



Refrão:

E             B        C#m
  Don't stop believin'
             A         E
Hold on to the feelin'
             B        G#m A
Streetlights   people

E             B        C#m
  Don't stop believin'
             A         E
Hold on to the feelin'
             B        G#m A
Streetlights   people

E             B        C#m
  Don't stop believin'
             A         E
Hold on to the feelin'
             B        G#m A
Streetlights   people
Composição: Jonathan Cain / Neal Schon / Steve PerryColaboração e revisão: Felipe CasselVinícius DiasBruno Tumelerohenrique.meloe mais 1
Videoaula Don't Stop Believin'