busca

Litoral

Kuase Nada

Tom: E
Intro: C#m7 F# A7
E|-7/9--9-9--7------------------------------------------------------------------|
B|-------------9--7--7-7-7---7-7-----5--7--7/9--7--5--7-7/9---------------------|
G|--------------------------------6---------------------------------------------|
D|------------------------------------------------------------------------------|
A|------------------------------------------------------------------------------|
E|------------------------------------------------------------------------------|

E|------------------------------------------------------------------------------|
B|----5--7--7/9--7--5--7--5--7--5~-------5--7/9--7--5--7-7/9--------------------|
G|-6-------------------------------6--6-----------------------------------------|
D|------------------------------------------------------------------------------|
A|------------------------------------------------------------------------------|
E|------------------------------------------------------------------------------|

E|-------7----------------------------------------------------------------------|
B|----5----7/9--7--5--5--7/9--7--5--------5--7/9--7--5--7--5--------------------|
G|-6--------------------------------6--6----------------------------------------|
D|------------------------------------------------------------------------------|
A|------------------------------------------------------------------------------|
E|------------------------------------------------------------------------------|

E|------------------------------------------------------------------------------|
B|---12-12-12--10-9-10-9--------------------------------------------------------|
G|------------------------------------------------------------------------------|
D|------------------------------------------------------------------------------|
A|------------------------------------------------------------------------------|
E|------------------------------------------------------------------------------|

C#m7                    F#
Quando eu fui nadar no lago
C#m7                   A7
Fiquei com saudade do mar...
C#m7          F#             C#m7      B
De não poder pegar no jaq nem poder surfar
C#m7                 F#          C#m7           A7
Ver o por do sol no arpoador e as garotas de Ipanemaa...
C#m7                      F        C#m7      B
Depois eu vou pra outro bico com uma saquarema

( C#m7 F# A7 C#m7 )
Fim do ano eu quero ver o mar
Achei que a seca fosse me matar
Mas com certeza eu vou ter que trampar
Pra o meu sonho se realizar
Fim do ano eu quero... Eu quero ver o mar
Achei que a seca fosse me matar
Mas com certeza eu vou ter que trampar
Para o meu sonho se realizar

C#m7                     F#   C#m7          A7
Mais eu tou aqui no serrado e tou afim de viajar
C#m7                   F#      C#m7      B
Pra ir lá pro Maracá ver o meu mengão jogar
C#m7                F#        C#m7      A7
E ver o cristo Redentor na cidade maravilhosaa...
C#m7                    F#     C#m7    B
Numa noite de lua cheia curti uma viola

( C#m7 F# A7 C#m7 ) 
Fim do ano, eu vou pro litoral
Curti umas paradas natural
Mais depois eu volto pro Planalto Central
Mas é que agora é Kuase Nada IzidiHouse (2x)
Fim do ano, eu vou pro litoral
Curti umas paradas natural
Mais depois eu volto pro planalto central
E agora é Kuase Nada IzidiHouse
Fim do ano, eu vou pro litoral
Curti umas paradas natural
Mais depois eu volto pro planalto central
Mas é que agora é Kuase Nada IzidiHouse

( C#m7 F# A7 C#m7 )
Fim do ano, eu vou pro litoral
Curti umas paradas natural
Mais depois eu volto pro Planalto Central
Mas é que agora é Kuase Nada IzidiHouse (2x)
Fim do ano, eu vou pro litoral
Curti umas paradas natural
Mais depois eu volto pro planalto central
E agora é Kuase Nada IzidiHouse
Fim do ano, eu vou pro litoral
Curti umas paradas natural
Mais depois eu volto pro planalto central
Mas é que agora é Kuase Nada IzidiHouse

Clipes