A Gente Nunca Conversou

Lagum

Am
123
X02210
E7M
1234
XX2444
F#m7
1234
2X222X
G#m7
1234
4X444X
Gm7
1234
3X333X
Tom: G
[Intro]


  E7M          
E|-4-4-x--4-4-x-4-x-4-4-x--4-4-x-
B|-4-4-x--4-4-x-4-x-4-4-x--4-4-x-
G|-4-4-x--4-4-x-4-x-4-4-x--4-4-x-
D|-2---x-2----x-2-x-2---x-2----x-
A|-------------------------------
E|-------------------------------

E|4-x---| 
B|4-x---| 
G|4-x---| 
D|2-x---| 
A|------| 
E|------| 



   G#m7                            
E|-------------------------------
B|-4-4-x--4-4-x-4-x-4-4-x--4-4-x-
G|-4-4-x--4-4-x-4-x-4-4-x--4-4-x-
D|-4-4-x--4-4-x-4-x-4-4-x--4-4-x-
A|-------------------------------
E|-4---x-4----x-4-x-4---x-4----x-
  Gm7
E|------| 
B|4-3---| 
G|4-3---| 
D|4-3---| 
A|------| 
E|4-3---| 



   F#m7                      
E|-------------------------------
B|-2-2-x--2-2-x-2-x-2-2-x--2-2-x-
G|-2-2-x--2-2-x-2-x-2-2-x--2-2-x-
D|-2-2-x--2-2-x-2-x-2-2-x--2-2-x-
A|-------------------------------
E|-2---x-2----x-2-x-2---x-2----x-

E|------| 
B|2-x---| 
G|2-x---| 
D|2-x---| 
A|------| 
E|2-x---| 



   Am
E|-------------------------------
B|-1-1-x--1-1-x-1-x-1-1-x--1-1-x-
G|-2-2-x--2-2-x-2-x-2-2-x--2-2-x-
D|-2-2-x--2-2-x-2-x-2-2-x--2-2-x-
A|-0---x-0----x-0-x-0---x-0----x-
E|-------------------------------

E|------| 
B|1-x---| 
G|2-x---| 
D|2-x---| 
A|0-x---| 
E|------| 


[Primeira Parte]

    E7M
Ei moça, do

Que será que
       G#m7
Cê tá rindo?
      G#m7  Gm7
A gente nunca
F#m7 Conversou Mas te ver de longe Am É bom de mais Bom, bom, bom E7M Ei moça, me diz G#m7 Onde você ta indo G#m7 Talvez te chame Gm7 F#m7 Pra dançar Mas não repara Am Caso eu travar É bom, bom, bom E7M Ei moça, o que cê G#m7 Passa no cabelo? G#m7 E que tem cheiro Gm7 F#m7 De limão fresquin Quero te apresentar Am Pra minha mãe já
Composição: LagumColaboração e revisão: Katriel CottaGFKOFFIRE 52Laura castroRafaele mais 2