Meu Abrigo

Melim

A#
234
688766
Am
34
577555
C
234
81010988
C#9
34
X46644
D
10ª234
101212111010
D#9
34
X68866
E7
1234
022130
F7
34
131211
F9
34
X8101088
Fm
234
X8101098
G
234
355433
G#
234
466544
G9
10ª34
X1012121010
Gm
10ª234
X1012121110
Tom: G
[Introdução]
G#  C           Fm  C#9
Uh, uh, uh, uh, uh, uh
G#  C           Fm  C#9
Uh, uh, uh, uh, uh, uh
 
[Introdução]

#1t1#Parte 1 de 3
   G#              C
#1t2#E|---4-x-4--4-x-4----8-x-8--8-x-8-----------|
B|---4-x-4--4-x-4----8-x-8--8-x-8-----------|
G|---5-x-5--5-x-5----9-x-9--9-x-9-----------|
D|-----x------x--------x------x-------------|
A|-----x------x--------x------x-------------|
E|-4---x------x----8---x------x-------------|#/1t2##/1t1#

#2t1#Parte 2 de 3
   Fm                 C#9
#2t2#E|----8-x--8---8-x--8----4-x-4--4-x-4-------|
B|----9-x--9---9-x--9----4-x-4--4-x-4-------|
G|---10-x-10--10-x-10----6-x-6--6-x-6-------|
D|------x--------x---------x------x---------|
A|-8----x--------x-----4---x------x---------|
E|------x--------x---------x------x---------|#/2t2##/2t1#

#3t1#Parte 1 de 3
   G#              C
#3t2#E|---4-x-4--4-x-4----8-x-8--8-x-8-----------|
B|---4-x-4--4-x-4----8-x-8--8-x-8-----------|
G|---5-x-5--5-x-5----9-x-9--9-x-9-----------|
D|-----x------x--------x------x-------------|
A|-----x------x--------x------x-------------|
E|-4---x------x----8---x------x-------------|#/3t2##/3t1#

#4t1#Parte 3 de 3
   Fm                 C#9
#4t2#E|----8-x--8---8-x--8----4-x-4-4------------|
B|----9-x--9---9-x--9----4-x-4-4------------|
G|---10-x-10--10-x-10----6-x-6-6------------|
D|------x--------x---------x----------------|
A|-8----x--------x-----4---x----------------|
E|------x--------x---------x----------------|#/4t2##/4t1#

[Primeira parte]

            G#
Desejo a você, 
                D#9
O que há de melhor
               Fm
A minha companhia
                   C#9
Pra não se sentir só

                  G#
O Sol, a Lua e o mar
                 D#9
Passagem pra viajar
                 Fm
Pra gente se perder
            C#9
E se encontrar

[Primeira parte]

#5t1#Parte 1 de 2
   G#              D#9
#5t2#E|---4-x-4--4-x-4----6-x-6--6-x-6-----------|
B|---4-x-4--4-x-4----6-x-6--6-x-6-----------|
G|---5-x-5--5-x-5----8-x-8--8-x-8-----------|
D|-----x------x--------x------x-------------|
A|-----x------x----6---x------x-------------|
E|-4---x------x--------x------x-------------|#/5t2##/5t1#

#6t1#Parte 2 de 2
   Fm                 C#9
#6t2#E|---8--x-8---8--x-8-----4-x-4--4-x-4-------|
B|---9--x-9---9--x-9-----4-x-4--4-x-4-------|
G|---10-x-10--10-x-10----6-x-6--6-x-6-------|
D|------x--------x---------x------x---------|
A|-8----x--------x-----4---x------x---------|
E|------x--------x---------x------x---------|#/6t2##/6t1#


[Pré-refrão]

 Fm         D#9
Vida boa, brisa e paz
         C#9                   G#
Nossas brincadeiras ao entardecer
Fm           D#9
Rir à toa é bom demais
   C#9                         D#9
O meu melhor lugar sempre é você

#7t1#[TAB - Pré-refrão]

Parte 1 de 3
   Fm                  D#9
#7t2#E|----8-x-8----8-x--8----6-x-6--6-x-6-------|
B|----9-x-9----9-x--9----6-x-6--6-x-6-------|
G|---10-x-10--10-x-10----8-x-8--8-x-8-------|
D|------x--------x---------x------x---------|
A|-8----x--------x-----6---x------x---------|
E|------x--------x---------x------x---------|#/7t2##/7t1#

#8t1#Parte 2 de 3
   C#9              G#
#8t2#E|---4-x-4--4-x-4-----4-x-4--4-x-4----------|
B|---4-x-4--4-x-4-----4-x-4--4-x-4----------|
G|---6-x-6--6-x-6-----5-x-5--5-x-5----------|
D|-----x------x---------x------x------------|
A|-4---x------x---------x------x------------|
E|-----x------x-----4---x------x------------|#/8t2##/8t1#

#9t1#Parte 1 de 3
   Fm                  D#9
#9t2#E|----8-x-8----8-x--8----6-x-6--6-x-6-------|
B|----9-x-9----9-x--9----6-x-6--6-x-6-------|
G|---10-x-10--10-x-10----8-x-8--8-x-8-------|
D|------x--------x---------x------x---------|
A|-8----x--------x-----6---x------x---------|
E|------x--------x---------x------x---------|#/9t2##/9t1#

#10t1#Parte 3 de 3
   C#9              D#9
#10t2#E|---4-x-4--4-x-4---6-6-6-6-6---------------|
B|---4-x-4--4-x-4---6-6-6-6-6---------------|
G|---6-x-6--6-x-6---8-8-8-8-8---------------|
D|-----x------x-----8-8-8-8-8---------------|
A|-4---x------x-----6-6-6-6-6---------------|
E|-----x------x-----------------------------|
                    ↓ ↓ ↓ ↓ ↓#/10t2##/10t1#

[Refrão]

     C#9    G#        Fm       D#9
Você é a razão da minha felicidade
          C#9            G# 
Não vá dizer que eu não sou 
  Fm        D#9
Sua cara-metade
      C#9        G#   Fm           D#9
Meu amor, por favor, vem viver comigo
       C#9      D#9
O seu colo é o meu abrigo
G#  C           Fm  F7
Uh, uh, uh, uh, uh, uh

[Segunda parte]

             A#
Quero presentear
                 F9
Com flores Iemanjá
             Gm
Pedir um paraíso
                   D#9 (pausa)
Pra gente se encostar

               A#
Uma viola a tocar
                       F9
Melodias pra gente dançar
                 Gm
A bênção das estrelas
            D#9
A nos iluminar

[Pré-refrão]

 Gm         F9
Vida boa, brisa e paz
    D#9                    A#
Trocando olhares ao anoitecer
 Gm          F9
Rir à toa é bom demais
   D#9                         F9
Olhar pro céu, sorrir e agradecer

[Refrão final]

     D#9    A#        Gm       F9
Você é a razão da minha felicidade
          D#9            A# 
Não vá dizer que eu não sou 
  Gm        F9
Sua cara-metade
      D#9        A#   Gm           F9
Meu amor, por favor, vem viver comigo
       D#9      F9
O seu colo é o meu abrigo
A#  D          Gm 
Uh, uh, meu abrigo
       D#9            A#
O seu colo é o meu abrigo
   D     Gm              D#9  C
O meu abrigo Uh, uh, uh, ah   Ah

     F9     C         Am         G
Você é a razão da minha felicidade
          F9             C 
Não vá dizer que eu não sou 
  Am        G 
Sua cara-metade
      F9         C    Am           G 
Meu amor, por favor, vem viver comigo
       F9       G9
O seu colo é o meu abrigo
C   E7         Am 
Uh, uh, meu abrigo
       F9            C 
O seu colo é o meu abrigo
C      E7  Am    
Uh, uhiêêê Hummm
       F9       G9    C
O seu colo é o meu abrigo
Composição: Gabriela Melim / Rodrigo MelimColaboração e revisão: Caico AntunesLucas KappaunPedro CaladoSamuel Borthe mais 6
Videoaula MEU ABRIGO (aula de violão completa)