busca

Em Outro Lugar

Livres Para Adorar

Tom: G
Intro  Em
      (Em  C9  G/B)
      (D/F#)
      (Em  C9  G)
      (D/F#)

Solo intro

E|----------------|-----------------|------------------|-3-3-3-3---2-2-2-2-|
B|-------3-3-3-5-5|-----------------|---------3-3-3-5-5|-------------------|
G|-4-4-4----------|-4-4-4-4-2-2-2-2-|-4-4-4-4----------|-------------------|
D|----------------|-----------------|------------------|-------------------|
A|----------------|-----------------|------------------|-------------------|
E|----------------|-----------------|------------------|-------------------|

E|----------------|-----------------|------------------|-3-3-3-3---5-5-5-5-|
B|-------3-3-3-5-5|-----------------|---------3-3-3-5-5|-------------------|
G|-4-4-4----------|-4-4-4-4-2-2-2-2-|-4-4-4-4----------|-------------------|
D|----------------|-----------------|------------------|-------------------|
A|----------------|-----------------|------------------|-------------------|
E|----------------|-----------------|------------------|-------------------|

     Em C9 G    Em    C   G
Pelo dia    é o vento a soprar
       Em   C9 G    Em    C9   G           Em  C  G
e pela noite     o calor a abraçar a minha voz
   Em      C9 G            Em   C9      G            Em C9 G
lançada ao  luar quem foi aquele que trocou o meu cantar

Em
Hoje eu não me encontro ali
                               D
hoje eu me encontro em outro lugar
              C9
venha me encontrar

G                         Dm              C9
Salvo por um homem cuja a vida revela a nós
                Cm
de maneira plena   a divina existência
G                            Dm             C9
Salvo em meio a guerra de um mundo sem piedade
                     Cm
Salvo por um homem   que um dia vai voltar

( Em  C9  G/B  D/F#  Em  C9  G  D/F# )

     Em C9  G        Em  C9   G
Da jane-la,   vejo o dia clarear
        Em C9 G        Em    C9   G             Em  C9 G
eu vejo flores     coloridas a brotar   num céu azul
   Em     C9   G            Em    C9     G          Em  C9 G/B G
suspensas pelo ar quem foi aquele que trocou o meu olhar

( Em )

Em
Hoje eu não me encontro ali
                               D
hoje eu me encontro em outro lugar
              C9
venha me encontrar

G                         Dm              C9
Salvo por um homem cuja a vida revela a nós
                 Cm
de maneira plena   a divina existência
G                            Dm             C9
Salvo em meio a guerra de um mundo sem piedade
                     G                  D/F#
Salvo por um homem    que um dia vai voltar
Em                      D            C9
Salvo dos meu medos e desejos de gritar
                  G        G  D/F#
onde está a graça desta vida
Em                       D/F#      C9     C9
salvo de mim mesmo, do pecado e do choro (e do choro)

Clipes