Vou Ter Que Superar (part. Marília Mendonça)

Matheus e Kauan

A#m
234
X13321
B9
34
X24422
C#9
34
X46644
Cm
234
X35543
D#m
1234
XX1342
Db9
34
X46644
Eb9
34
X68866
F#
234
244322
Fm
34
133111
Tom: G
[Intro] B9  C#9  D#m

#1t1##1t2#E|------------------------------------------|
B|------------------------------------------|
G|-4/6-6-6-6h8-6h8--------------------------|
D|-----------------4------------------------|
A|------------------------------------------|
E|------------------------------------------|#/1t2##/1t1#

#2t1##2t2#E|--------------------2/4h6p4-2-------------|
B|------------------------------------------|
G|-4/6-6-6-6h8-6h8--------------------------|
D|-----------------4------------------------|
A|------------------------------------------|
E|------------------------------------------|#/2t2##/2t1#

[Primeira Parte]

     D#m
Fui bobo

Imaturo demais
                           B9
Deixei escapar entre meus dedos
                                       F#
Seu amor, nosso apartamento futuro perfeito
                                          C#9
Se eu pudesse tentava de novo ter você aqui

       D#m
Quase morro

Tentando encontrar o contato novo
       B9
Dela agora
Eu sei que ela já tá em outra
             F#
E que vai embora
                                       C#9
Mas se existe consideração eu sei que vai me ouvir

[Pré-Refrão]

                 B9
Só vou pedir desculpas

O nosso pra sempre acabou
                         D#m
E um novo amor veio com tudo
                                                  B9
Meu erro pesou na balança e não vamos mais ficar juntos
                      C#9
Por que eu estraguei tudo

[Refrão]

                 B9
Vou ter que superar
                       C#9
Suas fotos com ele viajando
                  A#m                     D#m
E as amigas comentando que são um belo casal

                 B9
Vou ter que superar
              C#9
O dia do casamento
                 A#m                         D#m
Esperando que o tempo aos poucos possa me curar

             C#9  B9
Vou ter que su_perar
C#9                              D#m
    Que a gente não vai mais voltar
             C#9  B9
Vou ter que su_perar
C#9                              D#m
    Que a gente não vai mais voltar

[Solo] Db9  Eb9  Fm

#3t1##3t2#E|------------------------------------------|
B|-7h9-7--7/9--11h14------------------------|
G|------------------------------------------|
D|------------------------------------------|
A|------------------------------------------|
E|------------------------------------------|#/3t2##/3t1#

#4t1##4t2#E|-----------------11-----------------------|
B|------9-11-11/13--------------------------|
G|-8/10-------------------------------------|
D|------------------------------------------|
A|------------------------------------------|
E|------------------------------------------|#/4t2##/4t1#

#5t1##5t2#E|-----------------11-----------------------|
B|------9-11-11/13-----9/13-9-9/11-9-8-4h6--|
G|-8/10-------------------------------------|
D|------------------------------------------|
A|------------------------------------------|
E|------------------------------------------|#/5t2##/5t1#

[Pré-Refrão]

                 Db9
Só vou pedir desculpas

O nosso pra sempre acabou
                         Fm
E um novo amor veio com tudo
                                                  Db9
Meu erro pesou na balança e não vamos mais ficar juntos
                      Eb9
Por que eu estraguei tudo

[Refrão]

                 Db9
Vou ter que superar
                       Eb9
Suas fotos com ela viajando
                  Cm                      Fm
E as amigas comentando que são um belo casal
 
                 Db9
Vou ter que superar
              Eb9
O dia do casamento
                 Cm                          Fm
Esperando que o tempo aos poucos possa me curar

             Eb9  Db9
Vou ter que su_perar
                       Eb9
Suas fotos com ele viajando
                  Cm                      Fm
E as amigas comentando que são um belo casal

                 Db9
Vou ter que superar
              Eb9
O dia do casamento
                 Cm                          Fm
Esperando que o tempo aos poucos possa me curar

             Eb9  Db9
Vou ter que su_perar
Eb9                      Fm
    Que a gente não vai mais voltar
             Eb9  Db9
Vou ter que su_perar
Eb9                      Fm
    Que a gente não vai mais voltar
Composição: Vitor Ribas / Waldeir PiraColaboração e revisão: Thiago AlmeidaManoel Neto
Videoaula VOU TER QUE SUPERAR (part. Marília Mendonça) (aula de violão completa)