Lords Of Summer

Metallica

Tom: G

(RIFF 1)

E|------------------------------- 
B|------------------------------- 
G|------------------------------- 
D|-0-0-0---0-0-0---0-0-2---0-0-0- 
A|-5-4-4---5-4-4---5-4-4---5-2-2- 
E|-3-2-2---3-2-2---3-2-2---3-2-2- 

E|     
B|     
G|     
D|     
A|     
E|(4x) 




(RIFF 2)

E|-----------------------       
B|-----------------------       
G|-----------------------       
D|-----4-----------4-----       
A|-----------------------       
E|-2-2---2-2-0-2-2---2-2- (16X) 




(RIFF 3)

E|---------------------------- 
B|---------------------------- 
G|---------------------------- 
D|-----2-----2-----2-----2---- 
A|-----2-----2-----2-----2---- 
E|-0-0-0-0-0-0-0-0-0-0-0-0---- 



(RIFF 4)

E|-------------------------------
B|-------------------------------
G|-------------------------------
D|-----------------------------4-
A|-----2-----2-----2-----2-------
E|-0-0-0-0-0-0-0-0-0-0-0-0-2-2---

E|-----------------      
B|-----------------      
G|-----------------      
D|----------4------      
A|-----------------      
E|2-2-0-2-2---2-2-- (2X) 



E|--------------------------------
B|--------------------------------
G|--------------------------------
D|------------------------------5-
A|-----2-----2-----2-----2------3-
E|-0-0-0-0-0-0-0-0-0-0-0-0-2-2----

E|------  
B|------  
G|------  
D|5-4-4-  
A|3-2-2-  
E|------( 


E|----------------------- B|----------------------- G|----------------------- D|-----4-----------4----- A|----------------------- E|-2-2---2-2-0-2-2---2-2-(3X) (RIFF 5) E|------------------------------- B|------------------------------- G|------------------------------- D|---------------------5-4-0----- A|-4-------------------3-2-0-4--- E|-2-2-2-2-2-2-2-2-2-2-------2-2- (2X) E|---------------------------------- B|---------------------------------- G|---------------------------------- D|----------------5-4-0-2----------- A|----------------3-2-0-2----------- E|2-2-2-2-2-2-2-2-------0-0-0-0-0-0- ------------------------------ ------------------------------ ------------------------------ --------5-4-0----------------- --------3-2-0-4--------------- 0-0-0-0-------2-2-2-2-2-2-2-2- (RIFF 4) (RIFF 6) E|-------------------------------- B|-------------------------------- G|-------------------------------- D|-------5-4-------2-------0------ A|-4-4-4-3-2-4-4-4-0-4-4-4-2------ E|-2-2-2-----2-2-2---2-2-2-------- (RIFF 3) E|-------------------- B|-------------------- G|-------------------- D|-5-5-4-4------------ A|-3-3-2-2------------ E|-------------------- (RIFF 2) (RIFF 5) (RIFF 4)(2X) (RIFF)
Composição: Colaboração e revisão: Igor Graciano

Utilizamos cookies para personalizar sua experiência. Ao acessar o site, você concorda com a nossa Política de Privacidade.