If I Ruled The World Intro

Nas

Bm
234
X24432
G
123
320003
Tom: G

Laurens singing intro

E|--9-----------9-------9--------|
B|----10----------10------10-----|
G|-------11----------11------11--|
D|-------------------------------|
A|-------------------------------|
E|-------------------------------|



E|--7-----------7-------7---7-10--
B|----8-----------8-------8-------
G|-------9-----------9------------
D|--------------------------------
A|--------------------------------
E|--------------------------------

E||             
B||             
G||Repeat Twice 
D||             
A||             
E||             


Bm E|--2-2----2-2--------2-2----2-2-- B|--3-3----2-2--------2-2----2-2-- G|--4-4----3-3--------3-3----3-3-- D|--4-4----4-4--------4-4----4-4-- A|--2-2----2-2--------2-2----2-2-- E|--2-2----2-2--------2-2----2-2-- G E|--3-3----3-3--------3-3----3-3-- B|--3-3----3-3--------3-3----3-3-- G|--4-4----4-4--------4-4----4-4-- D|--5-5----5-5--------5-5----5-5-- A|--5-5----5-5--------5-5----5-5-- E|--3-3----3-3--------3-3----3-3--
Composição: J.C. Olivier / Jean Claude Poke Olivier / K. Walker / S. BarnesColaboração e revisão:

Utilizamos cookies para personalizar sua experiência. Ao acessar o site, você concorda com a nossa Política de Privacidade.