Ninguém Explica Deus

Preto No Branco

Am7
12
X02010
Am7(9)
1234
XX7587
Am7(9)/G
1234
302410
B7
1234
X21202
B7/D#
123
XX1202
C7M
12
X3200X
C7M(11+)
1234
8X997X
C7M/D
234
10X9988
D/F#
1234
2X0232
D7(4)
123
XX0213
D9(11)
123
X54030
Dm7(6/9)
134
X53500
Em
12
022000
Em7(9)
1234
X7577X
Em9
13
024000
F#m7(5-)
1234
2X221X
F7M(11+)
1234
133200
G/B
123
X20033
G5
134
355XXX
G5(7M)
123
3X403X
G7
34
353433
G7(4)
34
35353X
G7M
1234
3X443X
G9
12
3X020X
Tom: G
[Intro] G5(7M)  G7M  Em7(9)  Em9
        C7M  G/B  Am7(9)


Parte 1 de 4
        G5(7M)        G7M
E|-------------------------------
B|-------3-------0---------0-----
G|-----0-----0---------0-------0-
D|---4-----4---4-----4---4---4---
A|-------------------------------
E|-3---------------3-------------

E|-----------| 
B|-----------| 
G|-----------| 
D|4----------| 
A|-----------| 
E|-----------| 



Parte 2 de 4
        Em7(9)       Em9
E|-------------------------------
B|-------3-------0---------0-----
G|-----0-----0---------0-------0-
D|---4-----4---4-----4---4---4---
A|-------------------------------
E|-0---------------0-------------

E|-----------| 
B|-----------| 
G|-----------| 
D|4----------| 
A|-----------| 
E|-----------| 



Parte 3 de 4
        C7M             G/B
E|-----------0------------3p2-----
B|-------0--------------3-----3---
G|-----0---------0----0---------0-
D|---2-----2---2------------------
A|-3----------------2-------------
E|--------------------------------

E|----------| 
B|----------| 
G|----------| 
D|0---------| 
A|----------| 
E|----------| 



Parte 4 de 4
        Am7(9)
E|-------------0----0-------------
B|---------0--------0-------------
G|-------5----------5-------------
D|-----5-----5---5--5-------------
A|--------------------------------
E|-3/5--------------5-------------



[Primeira Parte – Primeira Estrofe]

 G5(7M)                 G7M
Nada é igual ao Seu redor
 Em7(9)               Em9
Tudo se faz no Seu olhar
 C7M                   G/B
Todo o universo se formou
          Am7(9)
No Seu falar


Parte 1 de 4
        G5(7M)        G7M
E|-------------------------------
B|-------3-------0---------0-----
G|-----0-----0---------0-------0-
D|---4-----4---4-----4---4---4---
A|-------------------------------
E|-3---------------3-------------

E|-----------| 
B|-----------| 
G|-----------| 
D|4----------| 
A|-----------| 
E|-----------| 



Parte 2 de 4
        Em7(9)       Em9
E|-------------------------------
B|-------3-------0---------0-----
G|-----0-----0---------0-------0-
D|---4-----4---4-----4---4---4---
A|-------------------------------
E|-0---------------0-------------

E|-----------| 
B|-----------| 
G|-----------| 
D|4----------| 
A|-----------| 
E|-----------| 



Parte 3 de 4
        C7M             G/B
E|-----------0------------3p2-----
B|-------0--------------3-----3---
G|-----0---------0----0---------0-
D|---2-----2---2------------------
A|-3----------------2-------------
E|--------------------------------

E|----------| 
B|----------| 
G|----------| 
D|0---------| 
A|----------| 
E|----------| 



Parte 4 de 4
        Am7(9)
E|-------------0--------0---------
B|---------0------------0---------
G|-------5---------5----5---------
D|-----5-----5---5------5---------
A|--------------------------------
E|-3/5---------------5--5---------



[Primeira Parte - Segunda Estrofe]

 G5(7M)            G7M
Teologia pra explicar
Em7(9)              Em9
Ou big bang pra disfarçar
 C7M                    G/B
Pode alguém até duvidar
 Am7(9)               C7M/D
Sei que há um Deus a me guardar


Parte 1 de 4
        G5(7M)        G7M
E|-------------------------------
B|-------3-------0---------0-----
G|-----0-----0---------0-------0-
D|---4-----4---4-----4---4---4---
A|-------------------------------
E|-3---------------3-------------

E|-----------| 
B|-----------| 
G|-----------| 
D|4----------| 
A|-----------| 
E|-----------| 



Parte 2 de 4
        Em7(9)       Em9
E|-------------------------------
B|-------3-------0---------0-----
G|-----0-----0---------0-------0-
D|---4-----4---4-----4---4---4---
A|-------------------------------
E|-0---------------0-------------

E|-----------| 
B|-----------| 
G|-----------| 
D|4----------| 
A|-----------| 
E|-----------| 



Parte 3 de 4
        C7M                     
E|-----------0--------------------
B|-------0---------------0--------
G|-----0---------0-----0--------0-
D|---2-----2---2-----2--------0---
A|-3---------------3--------2-----
E|--------------------------------
  G/B
E|----------| 
B|3---------| 
G|----------| 
D|----------| 
A|----------| 
E|----------| 



Parte 4 de 4
        Am7(9)            C7M/D
E|-------------0--------------0---
B|---------0----------------0-0---
G|-------5---------5------5---5---
D|-----5-----5---5------5-----5---
A|--------------------5-------5---
E|-3/5----------------------------



[Pré-Refrão]

  C7M(11+)  D9(11)
E eu tão pequeno e frágil
    Em7(9)
Querendo Sua atenção
Am7(9)   Am7(9)/G
   No silêncio encontro
    F7M(11+)       D/F#
Resposta certa então


Parte 1 de 4
        C7M(11+)         D9(11)
E|-----------0--------------------
B|-------0------------------5-----
G|-----0---------0--------0-----0-
D|---4-----4---4--------4-----4---
A|-3----------------4/5-----------
E|--------------------------------

E|----------| 
B|----------| 
G|----------| 
D|--4-------| 
A|5---------| 
E|----------| 



Parte 2 de 4
        Em7(9)
E|--------------------------------
B|---------7-------7--------7-----
G|-------0-----0----------0-------
D|-----5-----5---5------5-------5-
A|-5/7----------------7-------7---
E|--------------------------------

E|----------| 
B|----------| 
G|0---------| 
D|--5-------| 
A|----------| 
E|----------| 



Parte 3 de 4
        Am7(9)           Am7(9)/G
E|-----------0----------------0---
B|-------0----------------0-------
G|-----5---------5------5---------
D|---5-----5---5------5-----5---5-
A|--------------------------------
E|-5----------------3-------------

E|----------| 
B|----------| 
G|5---------| 
D|----------| 
A|----------| 
E|----------| 



Parte 4 de 4
        F7M(11+)  D/F#
E|-------0------------------------
B|-----0----------3---------------
G|-----2--------2-----------------
D|---3--------0-------------------
A|--------------------------------
E|-1--------2---------------------



[Refrão]

G9  G5      G7M
   Dono de toda ciência
Em7(9)        Em9
       Sabedoria e poder
    C7M        G/B
Oh dá-me de beber
 Am7(9)     C7M/D
Da água da fonte da vida

G9 G5 G7M Antes que o haja houvesse Em7(9) Em9 Ele já era Deus C7M G/B Se revelou ao seus Am7(9) C7M/D Do crente ao ateu Ninguém explica Deus Parte 1 de 4 G9 G5 G7M E|-------------------------------- B|-------0-------3----------0----- G|-----2-------0-------0--------0- D|---0-------0-------4---4----4--- A|-------------------------------- E|-3-------3-------3-------------- E|----------| B|----------| G|----------| D|4---------| A|----------| E|----------| Parte 2 de 4 Em7(9) Em9 E|------------------------------- B|-------3-------0---------0----- G|-----0-----0---------0-------0- D|---4-----4---4-----4---4---4--- A|------------------------------- E|-0---------------0------------- E|-----------| B|-----------| G|-----------| D|4----------| A|-----------| E|-----------| Parte 3 de 4 C7M G/B E|-----------0------------3p2----- B|-------0--------------3-----3--- G|-----0---------0----0---------0- D|---2-----2---2------------------ A|-3----------------2------------- E|-------------------------------- E|----------| B|----------| G|----------| D|0---------| A|----------| E|----------| Parte 4 de 4 Am7(9) C7M/D E|-------------0--------------0--- B|---------0----------0----------- G|-------5---------5--5---5------- D|-----5-----5---5----5-5---5---5- A|--------------------5----------- E|-3/5---------------------------- E|----------| B|----------| G|5---------| D|--5-------| A|----------| E|----------| (repete as partes 1, 2 e 3) Parte 04 De 04 (Variação) Am7(9) C7M/D E|-------------0------0----------- B|---------0----------0----------- G|-------5---------5--5----------- D|-----5-----5---5----5----------- A|--------------------5----------- E|-3/5---------------------------- [Intro com variação] G5(7M) G7M Em7(9) Em9 C7M G/B Am7(9) C7M/D Parte 1 de 4 G5(7M) G7M E|------------------------------- B|-------3-------0---------0----- G|-----0-----0---------0-------0- D|---4-----4---4-----4---4---4--- A|------------------------------- E|-3---------------3------------- E|-----------| B|-----------| G|-----------| D|4----------| A|-----------| E|-----------| Parte 2 de 4 Em7(9) Em9 E|------------------------------- B|-------3-------0---------0----- G|-----0-----0---------0-------0- D|---4-----4---4-----4---4---4--- A|------------------------------- E|-0---------------0------------- E|-----------| B|-----------| G|-----------| D|4----------| A|-----------| E|-----------| Parte 3 de 4 C7M G/B E|-----------0------------3p2----- B|-------0--------------3-----3--- G|-----0---------0----0---------0- D|---2-----2---2------------------ A|-3----------------2------------- E|-------------------------------- E|----------| B|----------| G|----------| D|0---------| A|----------| E|----------| Parte 4 de 4 Am7(9) C7M/D E|-------------0----0------------- B|---------0--------0------------- G|-------5----------5------------- D|-----5-----5---5--5------------- A|------------------5------------- E|-3/5---------------------------- [Primeira Parte] G5(7M) G7M Nada é igual ao Seu redor Em7(9) Em9 Tudo se faz no Seu olhar C7M G/B Todo o universo se formou Am7(9) No Seu falar G5(7M) G7M Teologia pra explicar Em7(9) Em9 Ou big bang pra disfarçar C7M G/B Pode alguém até duvidar Am7(9) C7M/D Sei que há um Deus a me guardar [Pré-Refrão] C7M(11+) D9(11) E eu tão pequeno e frágil Em7(9) Querendo Sua atenção Am7(9) Am7(9)/G No silêncio encontro F7M(11+) D/F# Resposta certa então [Refrão] G9 G5 G7M Dono de toda ciência Em7(9) Em9 Sabedoria e poder C7M G/B Oh dá-me de beber Am7(9) C7M/D Da água da fonte da vida G9 G5 G7M Antes que o haja houvesse Em7(9) Em9 Ele já era Deus C7M G/B Se revelou ao seus Am7(9) C7M/D Do gentio ao judeu Ninguém explica Deus [Segunda Parte] G5(7M) G7M Ninguém explica Ninguém explica Deus Em7(9) Em9 Ninguém explica Ninguém explica Deus C7M G/B E se duvida, ou se acredita Am7(9) F#m7(5-) Ninguém explica B7 B7/D# Ninguém explica Deus Em Ninguém explica Ninguém explica Deus Dm7(6/9) Ninguém explica G7(4) G7 Ninguém explica Deus C7M G/B E se duvida, ou se acredita Am7 Ninguém explica D7(4) Ninguém explica Deus Parte 1 de 8 G5(7M) G7M E|------------------------------- B|-------3-------0---------0----- G|-----0-----0---------0-------0- D|---4-----4---4-----4---4---4--- A|------------------------------- E|-3---------------3------------- E|-----------| B|-----------| G|-----------| D|4----------| A|-----------| E|-----------| Parte 2 de 8 Em7(9) Em9 E|------------------------------- B|-------3-------0---------0----- G|-----0-----0---------0-------0- D|---4-----4---4-----4---4---4--- A|------------------------------- E|-0---------------0------------- E|-----------| B|-----------| G|-----------| D|4----------| A|-----------| E|-----------| Parte 3 de 8 C7M G/B E|-----------0------------3p2----- B|-------0--------------3-----3--- G|-----0---------0----0---------0- D|---2-----2---2------------------ A|-3----------------2------------- E|-------------------------------- E|----------| B|----------| G|----------| D|0---------| A|----------| E|----------| Parte 4 de 8 Am7(9) F#m7(5-) E|-------------0------------------ B|---------0----------------1---0- G|-------5---------5------2-----2- D|-----5-----5---5------2-------1- A|------------------------------2- E|-3/5----------------2----------- B7 B7/D# E|----------| B|--7-------| G|--4-------| D|--7-------| A|--6-------| E|----------| Parte 5 de 8 Em E|------------------------------0- B|-------0-------0----------0----- G|-----0-----0----------0--------- D|---2-----2---2------2---2---2--- A|-------------------------------- E|-0----------------0------------- E|----------| B|----------| G|----------| D|0---------| A|----------| E|----------| Parte 6 de 8 Dm7(6/9) G7(4) G7 E|-----------0------------------- B|-------0----------------------- G|-----5---------5--------5--4--- D|---3---------3--------3-------- A|-5-------5----------5--------5- E|------------------3--------3--- E|-----------| B|-----------| G|--4--------| D|3----------| A|-----------| E|-----------| Parte 7 de 8 C7M G/B E|-----------0------------3p2----- B|-------0--------------3-----3--- G|-----0---------0----0---------0- D|---2-----2---2------------------ A|-3----------------2------------- E|-------------------------------- E|----------| B|----------| G|----------| D|0---------| A|----------| E|----------| Parte 8 de 8 Am7(9) D7(4) E|-----------0------3------------ B|-------1-----1----1---1----1-0- G|-----0---------0--0-0---0------ D|---2-----2--------0--------2-0- A|-0----------------------------- E|------------------------------- E|-----------| B|-----------| G|0----------| D|--0--------| A|-----------| E|-----------| [Refrão] G9 G5 G7M Dono de toda ciência Em7(9) Em9 Sabedoria e poder C7M G/B Oh dá-me de beber Am7(9) C7M/D Da água da fonte da vida G9 G5 G7M Antes que o haja houvesse Em7(9) Ele já era Deus C7M G/B Se revelou ao seus Am7(9) C7M/D Do gentio ao judeu G9 Ninguém explica Deus
Composição: Clóvis PinhoColaboração e revisão: Leandro SandimOSMAR FEITOSACLAUDIA DOTTOKalleb Diase mais 12
Videoaula Ninguém Explica Deus (aula de violão completa)

Utilizamos cookies para personalizar sua experiência. Ao acessar o site, você concorda com a nossa Política de Privacidade.