busca

Restitui

Renascer Praise

Tom: F
Introd: (2x)

      C                      F
E|--------------------------------|
B|--------------------------------|
G|-7/9-9--7h9-10--------7-7h9-9---|
D|-----------------10-------------|
A|--------------------------------|
E|--------------------------------|

                        C
E|--------------------------------|
B|----------8-8/10----------------|
G|-7h9-10------------7h9-9--------|
D|--------------------------------|
A|--------------------------------|
E|--------------------------------|

                G
E|--------------------------------|
B|--------------------------------|
G|-7h9-10-9-7-7-------------------|
D|--------------------------------|
A|--------------------------------|
E|--------------------------------|


Am7        Am7/G
Deus, poderoso ,grande Rei
       F                 C9   G/B
Minha vida está em Tuas mãos
Am7      Am7/G
Teu é o poder de refazer
   F          C
De devolver o que perdi
          G            F       C9
Eu vou profetizar, a espera acabou
       G                F
É hora de viver, meu milagre
        C9           G6
Não haverá mais lágrimas
        F
Só maravilha e provisão
       C9                  Em
Eu cantarei o som que vem do céu
         F
Ressurreição eu viverei

F/A  G/B   C       C4              C         G
Res - ti - tui tudo aquilo que foi consumido pela dor
        G#°                       F     C/E
Traz de volta a alegria dos meus sonhos
Dm7            G
Aba Pai, minha salvação
F/A    G/B         C            C4           C          G
Res  - ti    -   tui       não importa minha luta eu confio em Ti
             G#°                  F
Deus do impossível, Deus da minha vida
C/E   Dm7        F/A       G/B         Introdução
Sim Tu És fiel, e jamais me frustrará
                                            ( volta ao início )

Am             F
Restitui minha vida   
Fm7                Gm7
Tu És o Deus, poderoso Deus   
C   Dm   C/E   F
Restitui minha casa   
Ab                 Gm7
Tu És o Deus, poderoso Deus   
C   Dm   C/E      F
Restitui minha historia    

Fm7                Gm7
Tu És o Deus, poderoso Deus   

C   Dm   C/E   F
Restitui meus sonhos   
    Ab             Gm7
Tu És o Deus, poderoso Deus   

Fm7                Gm7
Tu És o Deus, poderoso Deus    
   Ab              Bb         C
Tu És o Deus, poderoso Grande Rei

Clipes

Cifra Club Pro

Aproveite o Cifra Club com benefícios exclusivos e sem anúncios
Cifra Club Pro
Aproveite o Cifra Club com benefícios exclusivos e sem anúncios