Sapato Velho

Roupa Nova

A
X0P222X
A/C#
1234
X4X255
A9
12
X02200
Ab
234
466544
B
234
799877
B/A
123
X0444X
Bb/Ab
1234
4X333X
Bbm7
3
686666
Bm7
34
X24232
C
123
X32010
C#7
1234
X4342X
C#m7
34
X46454
C/E
123
032010
C7
1234
X3231X
C7(4)
1234
X3331X
D
123
XX0232
D/A
123
X0423X
Dm6/F
12
1X020X
Dm7
34
X57565
1234
X5646X
E
123
022100
E/A
12
X02100
E/D
123
XX0454
E4
123
022200
E7(4/9)
X77777
Eb
234
X65343
Eb/Ab
1234
4XX343
Eb7
34
X68686
Eb7(4/9)
X66666
Eb7M
1234
XX1333
F
234
133211
F#
234
244322
F#/A#
1234
6X467X
F#4
234
244422
F#m7
3
242222
F9
134
XX3013
1234
XX3434
G
1234
320033
G#m
34
466444
G#m7
3
464444
G#º
1234
4X343X
G/A
1234
5X543X
G/F
134
1X0033
Gm7
3
353333
Tom: G
[Intro]

A9  G  D  E  A9  G  D  A9  D  E

A9  G  D  E  A9  G  D  A9  D  E

[Frase intro]

Parte 1 de 1
                     H.N
#1t1##1t2#E|--------------------7--------------------------------|
B|--------------------7--------------------------------|
G|--------------------7--------------------------------|
D|-2h4p2p0---0--------7--------------------------------|
A|---------4---2-4----7--------------------------------|
E|-----------------0--7--------------------------------|#/1t2##/1t1#

[Solo Intro]

Parte 1 de 4

#2t1##2t2#E|-------------10-9h10p9-------------------------------|
B|------10-12------------10-10-12----------------------|
G|-9-11------------------------------------------------|
D|-----------------------------------------------------|
A|-----------------------------------------------------|
E|-----------------------------------------------------|#/2t2##/2t1#

Parte 2 de 4

#3t1##3t2#E|-------------10-9-10-9--9-10-12-10-9-----------------|
B|------10-12--------------------------12-10-----------|
G|-9-11--------------------------------------11--------|
D|-----------------------------------------------------|
A|-----------------------------------------------------|
E|-----------------------------------------------------|#/3t2##/3t1#

Parte 3 de 4

#4t1##4t2#E|-------------10-9h10p9-------------------------------|
B|------10-12------------10-10-12----------------------|
G|-9-11------------------------------------------------|
D|-----------------------------------------------------|
A|-----------------------------------------------------|
E|-----------------------------------------------------|#/4t2##/4t1#

Pate 4 de 4

#5t1##5t2#E|------------------10-9-10-9-----10-9-10-12-----------|
B|----------10-12~-------------10----------------------|
G|-9-9-9-11--------------------------------------------|
D|-----------------------------------------------------|
A|-----------------------------------------------------|
E|-----------------------------------------------------|#/5t2##/5t1#

[Primeira Parte]

 A9   D/A     E/A
Você lembra, lembra
 D    A/C#  Bm7  A
Da__que____le   tempo
G#º  F#m7      F#m7     B/A
Eu  ti___nha estrelas nos olhos
    G#m7       C#m7
Um jeito de herói
F#m7      D  A/C#   Bm7  A
Era mais for__te e ve___loz
      G#º       F#m7
Que qualquer mocinho
 Dm6/F  A9  D/A  E/A  D/A
De  Cowboy

 A9   D/A     E/A
Você lembra, lembra
D   A/C#  Bm7  A   G#º  F#m7
Eu cos___tum___ava an__dar
   F#m7        B/A
Bem mais de mil léguas
     G#m7     C#m7
Pra poder buscar
  F#m7     D  A/C#  Bm7  A
Flores-de mai_o     a___zuis
  G#º        F#m7  
E os seus cabelos
Dm6/F  A9  D/A  E/A  G/A 
Enfei_tar

[Segunda Parte]

D        E/D
Água da fonte
    C#m7     F#4  F#
Cansei de beber
  B  F#/A#  G#m  F#     Eb  Eb/Ab
Pra não     en__ve__lhe__cer

( Eb7M  Eb7(4/9) )

 Ab      Bb/Ab
Como quisesse
    Gm7       C7(4)  C7
Roubar da manhã

F9  C/E  Dm7  C   G#º  A9  D/A  E/A
Um lin__do   pôr-de - sol

 D  A/C#  Bm7  A  G#º  F#m7
Ho_je    não  colho   mais
   F#m7     B/A
As flores-de-maio
     G#m7       C#7
Nem sou mais veloz
 Bbm7      Eb7
Como os heróis
Bm7  E7(4/9)
É   talvez eu

[Terceira Parte]

 A9   D/A    E/A
Seja simplesmente
 D   A/C#  Bm7  A   G#º  F#m7  
Como um   sa___pa__to   ve___lho
 F#m7      B/A
Mas ainda sirvo
    G#m7    C#m7
Se você quiser
 F#m7    D  A/C#  Bm7  A
Basta você me    cal__çar
       G#º        F#m7
Que eu aqueço o frio
 Dm6/F    A9  D/A  E/A  G
Dos seus pés

[Base Solo]

F  G/F  F  G/F

A9  D/A  E/A  G/A

F  G/F  Dm7  G/F  Dm7

E4  E  G/A  A

[Solo Principal]

Parte 1 de 8

#6t1##6t2#E|-----5-8-7-5-7-8/10-7--------------------------------|
B|---6------------------8------------------------------|
G|-7---------------------------------------------------|
D|-----------------------------------------------------|
A|-----------------------------------------------------|
E|-----------------------------------------------------|#/6t2##/6t1#

Parte 2 de 8

#7t1##7t2#E|-------5---8-7-8/10-8--10-10/12--9-9h10p9------------|
B|-5/6-----6--------------------------------10-12-10---|
G|-----7-----------------------------------------------|
D|-----------------------------------------------------|
A|-----------------------------------------------------|
E|-----------------------------------------------------|#/7t2##/7t1#

Parte 3 de 8

#8t1##8t2#E|-------9-12-9-10----9--------------------------------|
B|-10-12-----------12---10-12-9-10-10-12-9-10----------|
G|--------------------------------------------11-12----|
D|-----------------------------------------------------|
A|-----------------------------------------------------|
E|-----------------------------------------------------|#/8t2##/8t1#

Parte 4 de 8

#9t1##9t2#E|-----------------------------------------------------|
B|---------------10-12-b13r12p10-12~-------------------|
G|-------9-10-12---------------------------------------|
D|-11-12-----------------------------------------------|
A|-----------------------------------------------------|
E|-----------------------------------------------------|#/9t2##/9t1#

Parte 5 de 8

#10t1##10t2#E|-----5------8-------10-------12-------13-15-13-12----|
B|-5h6---6/10---10/12----12/13----13/15----------------|
G|-----------------------------------------------------|
D|-----------------------------------------------------|
A|-----------------------------------------------------|
E|-----------------------------------------------------|#/10t2##/10t1#

Parte 6 de 8

#11t1##11t2#E|-7---------------------------------------------------|
B|-7h9p7---7h9-----------------------------------------|
G|-------9---------------------------------------------|
D|-----------------------------------------------------|
A|-----------------------------------------------------|
E|-----------------------------------------------------|#/11t2##/11t1#

Parte 7 de 8

#12t1##12t2#E|------9-10-12-9-10----9------------------------------|
B|-9/12--------------12---10-12-9-10-10-12-9-10--------|
G|----------------------------------------------11-12--|
D|-----------------------------------------------------|
A|-----------------------------------------------------|
E|-----------------------------------------------------|#/12t2##/12t1#

Parte 8 de 8

#13t1##13t2#E|-----------------------------------------------------|
B|-----------------------------------------------------|
G|-------9-11~-----------------------------------------|
D|-11-12-----------------------------------------------|
A|-----------------------------------------------------|
E|-----------------------------------------------------|#/13t2##/13t1#

[Segunda Parte]

D        E/D
Água da fonte
    C#m7     F#4  F
Cansei de beber
  B  F#/A#  G#m  F#     Eb  
Pra não     en__ve__lhe__cer

( Eb7M  E7(4/9) )

 Ab      Bb/Ab
Como quisesse
    Gm7       C7(4)  C7
Roubar da manhã

F9  C/E  Dm7  C   G#º  A9  D/A  E/A
Um lin__do   pôr-de - sol

 D  A/C#  Bm7  A  G#º  F#m7
Ho_je    não  colho   mais
   F#m7     B/A
As flores-de-maio
     G#m7       C#7
Nem sou mais veloz
 Bbm7      Eb7
Como os heróis
Bm7  E7(4/9)
É   talvez eu

[Terceira Parte]

 A9   D/A    E/A
Seja simplesmente
 D   A/C#  Bm7  A   G#º  F#m7  
Como um   sa___pa__to   ve___lho
 F#m7      B/A
Mas ainda sirvo
    G#m7    C#m7
Se você quiser
 F#m7    D  A/C#  Bm7  A
Basta você me    cal__çar
       G#º        F#m7
Que eu aqueço o frio
 Dm6/F    A9  E7(4/9)
Dos seus pés talvez eu

 A9   D/A    E/A
Seja simplesmente
 D   A/C#  Bm7  A   G#º  F#m7  
Como um   sa___pa__to   ve___lho
 F#m7      B/A
Mas ainda sirvo
    G#m7    C#m7
Se você quiser
 F#m7    D  A/C#  Bm7  A
Basta você me    cal__çar
       G#º        F#m7
Que eu aqueço o frio
 Dm6/F    A9 
Dos seus pés

[Final]

 A9  D/A  E/A  D/A

 A9  D/A  E/A  D/A  A9

Composição: Cláudio Nucci / Mu / Paulinho TapajósColaboração e revisão: Leandro SandimTobias SantanaGabriel BarbosaFelipe Nevese mais 2
Videoaula SAPATO VELHO (aula de violão)