busca

Nervous

Shawn Mendes

Tom: C
[Intro]

     G7
E|----------------|----------------|
B|----------------|----------------|
G|----x-----------|----x-----------|
D|----x---3-3-3-5-|----x---3-3-3-5-|
A|----x-----------|----x-----------|
E|3-----3---------|3-----3---------|

[Primeira Parte]

     G7
E|----------------|----------------|----------------|----------------|
B|----------------|----------------|----------------|----------------|
G|----------------|----------------|----------------|----------------|
D|----x---3-3-3-5-|----x---3-3-3-5-|----x---3-3-3-5-|----x---3-3-3-2-|
A|----x-----------|----x-----------|----x-----------|----x-----------|
E|3---x-3---------|3---x-3---------|3---x-3---------|3---x-3---------|

     F
E|----------------|----------------|----------------|----------------|
B|----------------|----------------|----------------|----------------|
G|----------------|----------------|----------------|----------------|
D|----x---3-3-3-2-|----x---3-3-3-5-|----x---3-3-3-5-|----x---3-3-3-5-|
A|----x-----------|----x-----------|----x-----------|----x-----------|
E|1---x-1---------|1---x-1---------|3---x-3---------|3---x-3---------|

   G7
I saw you on a Sunday in a cafe
And all you did was look my way
                         F
And my heart started to race
                          G7
And my hands started to shake, yeah
I heard you asked about me through a friend
And my adrenaline kicked in
                                   F
'Cause I've been asking 'bout you too
                                G7
And now we're out here in this room

[Refrão]

                    G7
I get a little bit nervous around you
Get a little bit stressed out
When I think about you
                F
Get a little excited
                          G7
Baby, when I think about you, yeah
Talk a little too much around you
(I talk a little too much, yeah)
Get a little self-conscious
(I get a little self-conscious) when I think about you
                F
Get a little excited
(I get a little excited)
                          G7
Baby, when I think about you
Yeah, when I think about you, babe

[Segunda Parte]

We walked in the rain, a couple blocks to your apartment
You told me to come inside, caught me staring in your eyes
            F
And I'm not usually like this
                                 G7
But I like what you're doing to me, ah, what you're doing to me

[Refrão]

                    G7
I get a little bit nervous
(I get a little bit nervous) around you
Get a little bit stressed out
(I get a little bit stressed out) when I think about you
                F
Get a little excited
(I get a little excited)
                           G7
Baby, when I think about you, yeah
Yeah, when I think about you, babe (oh yeah)
Talk a little too much
(I talk a little too much, yeah) around you
Get a little self-conscious
(I get a little self-conscious) when I think about you
                F
Get a little excited
(I get a little excited)
                           G7
Baby, when I think about you
Yeah, when I think about you, babe

[Ponte]

     G7
You got me acting like I've never done this before
I promise I'll be ready when I walk through the door
       F
And I don't know why
       G7
No, I don't know why
Yeah

[Refrão]

                    G7
I get a little bit nervous
(I get a little bit nervous) around you
Get a little bit stressed out
(I get a little bit stressed out) when I think about you
                F
Get a little excited
(I get a little excited)
                           G7
Baby, when I think about you, yeah
Yeah, when I think about you, babe (oh yeah)
Talk a little too much
(I talk a little too much, yeah) around you
Get a little self-conscious
(I get a little self-conscious) when I think about you
                F
Get a little excited
(I get a little excited)
                           G7
Baby, when I think about you
Yeah, when I think about you, babe

Clipes

Cifra Club Pro

Aproveite o Cifra Club com benefícios exclusivos e sem anúncios
Cifra Club Pro
Aproveite o Cifra Club com benefícios exclusivos e sem anúncios