busca

Other Way Of Stopping

The Police

Tom: A
Tabbed by: Belavista Man
On: 09/01/2007
E-Mail: *

TAB, then check out Don't Stand So Close To Me and other songs off this album.


e|-----3-5-2-----------3-5-2-------|
B|---3-------3-0-1---3-------2-0-1-|
G|-2---------------2---------------|
D|---------------------------------|
A|---------------------------------|
E|---------------------------------|

e|-----------12+-|
B|---9-----------|
G|-9---9---------|
D|-------9-------|
A|---------7-----|
E|---------------|

e|-----3-5-2-----------3-5-2-------|
B|---3-------3-0-1---3-------2-0-1-|
G|-2---------------2---------------|
D|---------------------------------|
A|---------------------------------|
E|---------------------------------|

e|-----10--------------10--------------------12+-|
B|---8----8---10-----8----8---10-----9-----------|
G|-9--------9----7-9--------9----7-9---9---------|
D|---------------------------------------9-------|
A|-----------------------------------------7-----|
E|-----------------------------------------------|
(repeat all as many times as necessary)


| /  slide up
| \  slide down
| h  hammer-on
| p  pull-off
| ~  vibrato
| +  harmonic
| x  Mute note

Clipes