busca

Too Much Information

The Police

This is my first attempt at submitting a tab so I'll 
make it an easy one. 


G---------------------
D---------------------
A------------3--3--5--
E---3--3--5-----------

Try playing around with it and add some slides at
end. 

The sax does something like this in the beginning, but 
who says you can't play it on your bass. 

G-----------------------------3----
D-------3--3--5---------3--3-------
A-2--3-------------2--3------------
E----------------------------------

That's about it, Enjoy!

Send any corrections and/or comments to Malav Trivedi at
*

Clipes