Aliança de Sangue

Anderson Freire

A
123
X02220
A#°
123
X12020
A4
123
X02230
Am
123
X02210
Bm
234
X24432
C
123
X32010
C/E
123
032010
C4
134
X3301X
D
123
XX0232
D/F#
1234
2X0232
Dm
123
XX0231
Em
12
022000
F
234
133211
F#m
34
244222
G
123
320003
G/B
123
X20033
G4
234
355533
Tom: G
Intro: Bm  A  G  D/F#  Em  D/F#

  G  A


E|---------5--9--10--9------------
B|----5-7---------------10--------
G|--7-----------------------7-----
D|-----------------------------9--
A|--------------------------------
E|--------------------------------

E|-------------| 
B|---9h10---7--| 
G|7------------| 
D|-------------| 
A|-------------| 
E|-------------| 



E|-------------------------------
B|-------------------------------
G|-----6--7--9--7--6-------------
D|--9-----------------9--7h9-----
A|-------------------------------
E|-------------------------------

E|--------------| 
B|--------------| 
G|9h11-9--------| 
D|--------------| 
A|--------------| 
E|--------------| 



E|--------------------------------
B|--------------------------------
G|----7---6-----------------------
D|--7---7------0------------------
A|-------------7~9----------------
E|--------------------------------


Primeira Parte:
 D        D/F#                G  
Somos um, o Teu sangue fez assim 
   A      D
   ooOoh! ooOoh!
            D/F#                  
Teu amor é bem maior que tudo em 
G        A
mim    oooOoh!
Bm            F#m   G          A4 A
Ao descer ao mundo sem a Sua Glória
 Bm             F#m           G
Me abraçou tão forte o meu Jesus
Bm               F#m     G      
E ao voltar pro céu fez da nossa
     A
 história
Em       D/F#          G
Aliança com preço de cruz
 Em           D/F#      G
Comunhão de graça e de luz

Refrão:
D     D/F#    G
És o Rei da Glória
      A           D   D/F#   G
Teu Trono não Te separou de mim
     A#°          Bm     F#m   G
Teu sangue eternizou nossa história
D/F# Em A D Nossa aliança não tem fim Primeira Parte: C C/E F Somos um, o Teu sangue fez assim G C ooOoh! ooOoh! C/E Teu amor é bem maior que tudo em F G mim oooOoh! Am Em F G Ao descer ao mundo sem a Sua Glória Am Em F G4 G Me abraçou tão forte o meu Jesus Am Em F E ao voltar pro céu fez da nossa G história Dm Em F Aliança com preço de cruz Dm Em F Comunhão de graça e de luz Refrão: C Em F És o Rei da Glória G C C/E F Teu Trono não Te separou de mim G Am Em F Teu sangue eternizou nossa história Em Dm G C4 C C4 C Nossa aliança não tem fim Ponte 2x: Am G/B F C Nem a vida, nem a morte Am G/B F C Nos separam,somos um Am G/B F C Teu amor, pai, me consome Am G Sou Teu, Ès meu Refrão: C Em F És o Rei da Glória G C C/E F Teu Trono não Te separou de mim G Am Em F Teu sangue eternizou nossa história Em Dm G Nossa aliança... C Em F És o Rei da Glória G C C/E F Teu Trono não Te separou de mim G Am Em F Teu sangue eternizou nossa história Em Dm Nossa aliança... G Am Em F Teu sangue eternizou nossa história Em Dm G C Nossa aliança não tem fim
Composição: Anderson FreireColaboração e revisão: Lucas Kappaunalessandro rodriguesBethânia MarquesDeidivaldo Françae mais 13