Medley (Dvd Essência)

Anderson Freire

A
123
X02220
A/C#
1234
X4X255
A9
12
X02200
Am7
12
X02010
B
234
X24442
B/C#
1234
X6X477
B/D#
1234
X6X477
B7M
234
X24342
Bb
234
X13331
Bm
234
X24432
Bm7
34
X24232
C
123
X32010
C#
234
X46664
C#/F
1234
X8X699
C#7M
234
X46564
C#9
34
X46644
C#m
234
X46654
C#m7
34
X46454
D
123
XX0232
D#
234
X65343
D#7/9#
1234
X6567X
D9
12
XX0230
Dm
123
XX0231
Dm7
34
X57565
E
123
022100
E/F#
1234
XX4454
E/G#
1234
4X245X
E7
1234
022130
E7M
1234
XX2444
Em7
123
022030
F
234
133211
F#
234
244322
F#/Bb
1234
6X467X
F#/C#
234
X44322
F#4
234
244422
F#m6/C#
1234
X4424X
F#m7
1234
2X222X
G
123
320003
G#
234
431114
G#/C
1234
X3X144
G#m7
1234
4X444X
G/B
123
X20033
G9
12
3X020X
Tom: G
[Intro]


E|--------------------------------
B|--------------------------------
G|------------------10--9---------
D|------10--9----7---------7--10--
A|-7--8-------10------------------
E|--------------------------------

E|----------7--8------13--12-| 
B|---9--10--------7/9--------| 
G|9--------------------------| 
D|---------------------------| 
A|---------------------------| 
E|---------------------------| 



E|--------------------------------
B|---------15--13--12-------------
G|---------------------14--13--14-
D|--12/14-------------------------
A|--------------------------------
E|--------------------------------

E|---------------------------| 
B|---------------------------| 
G|-13------------------------| 
D|----15--14-----------------| 
A|---------------------------| 
E|---------------------------| 



E|--------------------------------
B|----------17---------15---------
G|--------------------------------
D|--14--14-----14--14-----14--14--
A|--------------------------------
E|--------------------------------

E|---------------------------| 
B|---------------------------| 
G|17-------------------------| 
D|----14--14-----------------| 
A|---------------------------| 
E|---------------------------| 



E|------------------------------
B|------------------------------
G|--16--17--16--14--13--14--13--
D|------------------------------
A|------------------------------
E|------------------------------

E|-----------------------------| 
B|-----------------------------| 
G|----13-----------------------| 
D|15------14-------------------| 
A|-----------------------------| 
E|-----------------------------| 



E|-------------------------------
B|--------------13--12-----------
G|------13--10----------12--9----
D|--12---------------------------
A|-------------------------------
E|-------------------------------

E|----------------------------| 
B|----------------------------| 
G|2---------------------------| 
D|2---------------------------| 
A|----------------------------| 
E|----------------------------| 


Am7
Queria tanto olhar pro céu
       G
Contemplar a grandeza do meu Deus
     Dm 7
Diferente da atitude de tomé
Quero ver porque eu creio, porque eu
        E  F  E  F  E  E  F  E
 tenho fé
  F  E  D  C  B A

 Am7                      G
Queria tanto receber, a cura, o 
milagre eu quero ver
       Dm7
Gritarei o seu nome com muita fé
E ele me atenderá, me colocará de 
E F E F E F  G  A  ABCBAGA
pé...

Am7 ( A B C B A )           F ( 
Abra, abra os meus olhos, dá-me 
F F G A G F )      G ( G G A 
a visão
B A G A B A G)

                   Dm7
Eu preciso ver, eu quero ver, aquele
 que faz o milagre
Am7 ( A B C B A)           F ( 
Abra, abra os meus olhos, dá-me
F F G A G F )      G ( G G A 
 a visão
B A G A B A G )

            Dm7
Eu preciso ver, eu quero ver

( A  B  C  D  E  G  A  B  C  

D  E  G  A )

Am7                    F   
Senhor  não vou dividir minha 
         C
adoração
          G         Am7
Exclusivo é o meu coração
            F                   C 
Vivo só pra Ti  não abro mão do 
        (2x)
céu
                 G       E7     
mesmo diante da morte prefiro ser 
   Am7
fiel

( A  B  C  D  E  G  A  B  C  

D  E  G  A ) D9

     D9                 A/C#
Senhor, quebra o meu orgulho
            Bm7        G
Eu quero descer e mergulhar
                   D9
Nas águas do teu amor
       A                  Bm
Me purifica! Eu quero ser limpo
      G         A      D9         
Como Naamã, no teu poder
( A/C# )


Bm7       G9             D9
Advogado fiel, Advogado fiel
                   A9
O meu Jesus é pra mim Advogado Fiel
  Bm7     G9             D9
Advogado Fiel, Advogado fiel
                  A9   D9
O meu Jesus é pra mim

G/B A/C# D9 Meu advogado é o meu Senhor A9 Ele me defende do acusador Em7 Minha causa entreguei em Suas mãos G9 D9 Posso descansar o meu coração D9 Minha audiência ele já marcou E garantiu de novo que eu serei um Bm7 A9 vencedor Em7 Meu advogado mora lá no céu G9 A9 D9 Verdadeiro justo, pra sempre fiel C#m A O todo poderoso está aqui E Cristo ja esta passando aqui G# F# G#3X B Rompe a multidão e toque nEle C#m Virtude sairá C#m A O todo poderoso está aqui E Cristo ja esta passando aqui G#m7 Rompe a multidão e toque nEle C#m A E Eu quero estar além de tudo, eu B não pertenço a este mundo C#m A Eu vou guardar a minha fé, pra G# C#m7 não perder minha coroa, A E Preciso andar em santidade, pra B F#m7 ver a face do meu noivo G#m7 A E adorar na excelência o todo B E poderooooooso... B7M Estou sentindo minhas forças indo E7M embora Mas Tua presença me renova nessa D#7/9# G#m7 hora F#4 F# O Senhor vem, e me leva além B7M O meu sonho de chegar está tão E7M longe D#7/9# Sou humano não consigo ser G#m7 perfeito E/F# E7M O Senhor vem, e me leva.... além B F#/Bb Mestre eu preciso de um milagre G#m7 F# Transforma minha vida, o meu E estado B Faz tempo que não vejo a luz do D#7/9# F# E D# dia Estão tentando sepultar minha G#m7 alegria E Tentando ver meus sonhos cancelados B/D# C#m7 G#/C B Lázaro ouviu a Sua voz, quando F#/Bb A9 aquela pedra removeu B Depois de quatro dias ele reviveu D#7/9# G#m7 F#/Bb B E Mestre, não há outro que possa fazer B/D# Aquilo que só o Teu nome tem todo A9 poder E/F# Eu preciso tanto de um milagre B Remove minha pedra B7M Me chama pelo nome G#m7 Muda minha história E/G# Ressuscita os meus sonhos B/D# E Transforma minha vida F# Me faz um milagre A Me toca nessa hora E/G# Me chama para fora F# B B Bb G# Bb Ressuscita-me B Tu és a própria vida F#/Bb A força que há em mim G#m7 Tu és o filho de Deus E Que me ergue pra vencer B/D# ( D# C# B Bb B Senhor de tudo em mim Bb ) F#/Bb Já ouço a Tua voz G#m7 Me chamando pra viver E Uma história de poder! C# Remove minha pedra C#7M Me chama pelo nome B/C# Muda minha história F#/C# Ressuscita os meus sonhos ( G# F# F ) C#/F Transforma minha vida F# G# Me faz um milagre B Me toca nessa hora F#/Bb Me chama para fora G# C# Ressuscita-me [Final] C# F#m6/C# C#9
Composição: Anderson Freire / Dedé di JesusColaboração e revisão: Hamilton SilveiraEliezer RibeiroSusan CarolineRafael Souzae mais 1