busca

Casinha

Armandinho

Tom: G
[Intro]

E|-------7--08/10----10\08-7---08---08/10-----|
B|--7h8--8--10/12----12\10-8---10---10/12---8-| 
G|--7h9-------------------------------------9-| 
D|--------------------------------------------|
A|--------------------------------------------|
E|--------------------------------------------|

E|-------7--08/10--08/10----10\08-7---08---08/10----|
B|--7h8--8--10/12--10/12----12\10-8---10---10/12--8-|
G|--7h9-------------------------------------------9-|
D|--------------------------------------------------|
A|--------------------------------------------------|
E|--------------------------------------------------|

 G
Fazer uma casinha no alto do morro
   Am
É tudo que eu pedi pra jah
      G
Sair dessa cidade soltar o meu cachorro
            Am
Fugir da babilônia
         G
Aqui eu sou marajá
     Am
A natureza é minha luxúria
           G                      Am
Viver de frente pro mar, sei que Deus me ajudará
       G
E quando a noite chegar
       Am
Brisa de oeste soprar
             G              Am
Sinto a esperança no ar, maré cheia ajudará
     Bm
A felicidade se encontra
                 C7M
Nas coisas mais simples da terra
    Bm
As vezes a paz de um sorriso

        C7M
Pode desarmar uma guerra
      Bm
Aqui to mais perto de Deus
    Am
Curtindo meu filho brincar
   Bm
Cidade vou dizer adeus
         Am
Não sei se eu vou voltar

Clipes