busca

Ursinho de Dormir

Armandinho

Tom: D
(primeira parte)

 D7M    G7M                              D7M
     E hoje eu descobri o quanto eu te quero
   G7M                              D7M
Ursinho de dormir, vem que eu te espero assim
    G7M                       D7M
Eu hei de conquistar teu coração durão demais
                Em
Que não quis pagar pra ver
                A7
Nem dar o braço a torcer

(refrão)
             G7M
Eu vou te levar pro mar,
               D7M
nas pedras eu vou te amar
            G7M
E ao vêr o sol se pôr,
             D7M
eu vou te matar de amor
               G7M
E eu vou te levar pro céu,
            D7M
pra onde você quiser
                     G7M
Eu tenho um 'beck' pra depois
         Em        A7      D7M
Pra brindar o infinito de nós dois
    G7M          D7M           G7M
De nós dois, de nós dois... huuumm...

(repete tudo)

(solo)

1ª parte)

E|---------------------------------------------------|
B|-10h12-12~-10-----10---10-10-10------10------------|
G|-----------10r9p7-9b11-9--7--7-7---7-9b10r9p7------|
D|-------------------------------7h9-----------7h9p7-|
A|---------------------------------------------------|
E|---------------------------------------------------|

2ª parte)

E|-----------7------7--------------------------------|
B|------10p7---10\7---10-7---------------------------|
G|--7h9--------------------9b10-10-7~-7--------------|
D|------------------------------------7h9p7-7--------|
A|------------------------------------------7h9------|
E|---------------------------------------------------|

3ª parte)

E|---------------------------------------------------|
B|----------------10------------10-------------------|
G|--------7--9/11----11\9-7--------9b10-9~-----7-----|
D|--7h9-7-------------------7h9------------7h9-7-----|
A|---------------------------------------------------|
E|---------------------------------------------------|

Clipes