Irresistible Force

Bee Gees

Tom: G
ALBUM: Still Waters
TABBED BY: Martin Kelly


INTRO

#1t1#GUITAR 1
#1t2#E-----------------------------------------------------------------------------------------
B-----------------------------------------------------------------------------------------
G--------4-----------4-----------2----------2---------------------------------------------
D----5-5----5----5-5----5----5-5---5----5-5---5-------------------------------------------
A--5-----------5-----------5----------5---------------------------------------------------
E-----------------------------------------------------------------------------------------#/1t2##/1t1#
                                                Repeat three times
GUITAR 2
#2t1##2t2#E----------------------------------12-----------------------------------------------------
B--10---------------------12-13-12----10-10---------------------10--12-12[13]-12--8-10----
G-----------------------------------------------------------------------------------------
D-----------------------------------------------------------------------------------------
A-----------------------------------------------------------------------------------------
E-----------------------------------------------------------------------------------------#/2t2##/2t1#

VERSE

#3t1#GUITAR 1
#3t2#E-----------------------------------------------------------------------------------------
B-----------------------------------------------------------------------------------------
G--------5---------5---------5---------4---------5------5------5--------4--------4--------
D----5-5-------5-5-------5-5-------5-5-------5-5------5------5------5-5------5-5------5-5-
A--5---------5---------5---------5---------5--------5------5------5--------5--------5-----
E-----------------------------------------------------------------------------------------
|#/3t2##/3t1#
#4t1#|GUITAR 2
#4t2#E-----------------------------------------------------------------------------------------
B-----------------------------------------------------------------------------------10----
G---------------------------------------------------------------------------------9----9--
D-----------------------------------------------------------------------------------------
A-----------------------------------------------------------------------------------------
E-----------------------------------------------------------------------------------------#/4t2##/4t1#

#5t1#GUITAR 1
#5t2#E-----------------------------------------------------------------------------------------
B-----------------------------------------------------------------------------------------
G--4--------4-----------------------------------------------------------------------------
D-------5-5-------------------------------------------------------------------------------
A-----5-----------------------------------------------------------------------------------
E-----------------------------------------------------------------------------------------
|#/5t2##/5t1#
#6t1#|GUITAR 2
#6t2#E-----------------------------------------------------------------------------------------
B--12-------------------------------------------------------------------------------------
G-----9-----------------------------------------------------------------------------------
D-----------------------------------------------------------------------------------------
A-----------------------------------------------------------------------------------------
E-----------------------------------------------------------------------------------------#/6t2##/6t1#

CHORUS

#7t1#GUITAR 1                                Repeat twice.
#7t2#E-----------------------------------------------------------------------------------------
B-----------------------------------------------------------------------------------------
G--------4--------4--------2--------5--4--------------------------------------------------
D----5-5------5-5------5-5------5-5-------------------------------------------------------
A--5--------5--------5--------5-----------------------------------------------------------
E-----------------------------------------------------------------------------------------#/7t2##/7t1#

SOLO [Guitar 1 doesn't play anything]

#8t1##8t2#E-----------------------------------------------------------------------------------------
B--8[10]------8---------------------------------8[10]--12[13]-12--------------------------
G--------------------9-7-7--7[9]-7[9]--------------------------------9-7-7-7-9-7-5--------
D---------------------------------------10-8---------------------------------------7-5----
A--------------------------------------------------------------------------------------7-5
E-----------------------------------------------------------------------------------------#/8t2##/8t1#

#9t1##9t2#E-----------------------------------------------------------------------------------------
B-----------------------------------------------------------------------------------------
G-----------------------------------------------------------------------------------------
D-----------------------------------------------------------------------------------------
A-----------------------------------------------------------------------------------------
E--7-5------------------------------------------------------------------------------------#/9t2##/9t1#

CHORUS 3 [GUITAR 2]

#10t1##10t2#E----------------------------------------------------------------------------------12-----
B-------------------------10--------------12[13]-12-10------12/13---12--10----------------
G-----------------------------------------------------------------------------------------
D-----------------------------------------------------------------------------------------
A-----------------------------------------------------------------------------------------
E-----------------------------------------------------------------------------------------#/10t2##/10t1#

#11t1##11t2#E--12/10----10----------------------------------------------------------------------------
B----------------10-----------------------------------------------------------------------
G-----------------------------------------------------------------------------------------
D-----------------------------------------------------------------------------------------
A-----------------------------------------------------------------------------------------
E-----------------------------------------------------------------------------------------#/11t2##/11t1#
Composição: Colaboração e revisão: