Flight Of Navigator

Childish Gambino

A7M
123
X02120
C#m7
34
X46454
E
123
022100
E7M
1234
XX2444
F#7M
1234
2X332X
F#m
34
244222
G#m7
1234
4X444X
Tom: G
[Intro]

#1t1# F#7M            E7M          A7M              F#m
#1t2#E|---------------------------------------------------------------------|
B|---------11---------------9----------------14----------------10------|
G|-------------10--------------8-----------------13----------------11--|
D|-----11----------------9---------------14----------------11----------|
A|--9-----------------7--------------12-----------------9--------------|
E|---------------------------------------------------------------------|#/1t2##/1t1#

#2t1#   G#m7                E
#2t2#E|----------------------------------|
B|-----------12---------------9-----|
G|---------------11--------------9--|
D|------13-----------------9--------|
A|--11------------------7-----------|
E|----------------------------------|#/2t2##/2t1#

F#7M        E7M
I had a dream
                                          F#7M
I had a dream I was flying over all of us
E7M
There were so many pretty people
                     F#7M
So many pretty faces
                       E7M
I talked to some birds
                     F#7M
I fell in love again
                            E7M
And none of this ever ended
                                   A7M       F#m  G#m7
Everything just kept going and going and going
                                    E
And even when you laughed you cried
                      A7M                     F#m
And even when you were sad you were really happy
                      G#m7
Because you were here
                E
And I got to meet every star
             A7M
Every planet
                        F#m G#m7
Everything that made me
                  E
And we all kissed
                    A7M
And became the same
                   F#m G#m7
We became the same
                   E
We became the same

#3t1# A7M          F#m          G#m7        E 
#3t2#E|-----------------------------------------------------------|
B|--------1--------------------------------------------------|
G|-----------2-----------2--------------4--------------1-----|
D|-----2--------------------4--------------4--------------2--|
A|--0-----------------4--------------6--------------2--------|
E|-----------------2--------------4--------------0-----------|#/3t2##/3t1#

            F#m
Who would have thought this
         G#m7
We almost lost it
               C#m7                          A7M
When you lie inside darkness it's hard to see
             F#m
And we sleep in tradition
              G#m7
Keep them off in the distance
                C#m7               A7M
To tell you that I haven't been

   F#m G#m7      C#m7    A7M
We are all cold water
   F#m     G#m7     C#m7
Why try at all? Why bother?
                    A7M     F#m
Just hold me close my darling
                    G#m7      C#m7
Just hold me close my darling
                    A7M     F#m
Just hold me close my darling
                     NC       A7M
Just hold me close my darling

       F#m
Who would have dreamed this?
          G#m7
You couldn't mean this
          C#m7                                 A7M
Could it be some type of meanness where you are?
      F#m                     G#m7
Cause I don't know where to go
     C#m7                       A7M
And no one else seems to know

   F#m  G#m7        C#m7     A7M
We are all knights fallen
   F#m     G#m7      C#m7       A7M
Why try at all? Dark calling
         F#m       G#m7
So we're left alone
       C#m7                A7M
No one left to call upon
     F#m                   G#m7
Be still now, broken bones
    C#m7                           A7M        F#m
As I travel on just hold me close my darling
                 G#m7         C#m7
Just hold me close my darling
            A7M        F#m
Hold me close my darling
                 G#m7         C#m7
Just hold me close my darling

( A7M  F#m  G#m7  C#m7 )
( A7M  F#m  G#m7  C#m7 )

A7M    F#m       G#m7
So we're left alone
       C#m7                A7M
No one left to call upon
     F#m                   G#m7
Be still now, broken bones
    C#m7                           
As I travel on just hold me close my darling
Just hold me close my darling
Hold me close my darling
Just hold me close my darling
Composição: Ludwig Emil Tomas Goransson / Donald Mckinley GloverColaboração e revisão: Pedro Oliveira