Do Outro Lado do Rádio

Daniel

B
234
X24442
C#
234
X46664
C#7
1234
X4342X
D#m
1234
XX1342
F#
234
244322
Tom: G
[Intro] D#m  F#  D#m  F#

#1t1##1t2#E|--------------------------------------------------------|
B|---7--7--7----7----7------7p4---4-----------------------|
G|---8--6--6h8--6h8--6--6-------6-------------------------|
D|---8--8--8----8----8--8---------------------------------|
A|----------------------9---------------------------------|
E|--------------------------------------------------------|#/1t2##/1t1#

 F#         D#m
Hei, você do outro lado do rádio
   F#
Escute esta canção que fala
       D#m
De um amor que talvez nunca tenha amado
  B
A voz de um coração não cala
   C#
Você talvez não tenha escutado

   B
São pequenas emoções, pequenas festas
         D#m
Que acontecem num silêncio as vezes em simples conversas
     B                        C#
A vida, mesmo que às vezes sofrida
  B                 C#               F#      C#7
É tão curta e tão bonita pra não ser vivida

[Refrão]

F#
Como se fosse uma neblina no vento
D#m
Mudando a forma de qualquer pensamento
B
Como uma estrela iluminando um desejo
        C#
Pelo espaço no calor de um beijo
F#
Como se alguém chegasse vindo do nada
D#m
Ao som apaixonado de uma balada
B
Como se um grande amor viesse num raio
C#
E apagasse o que não se acende mais
              D#m
Do outro lado do rádio
#2t1##2t2#E|--------------------------------------------------------|
B|---7--7--7----7----7-------7p4----4------4h6/7--6-4-6---|
G|---8--6--6h8--6h8--6--6--------6------3---------------6-|
D|---8--8--8----8----8--8---------------------------------|
A|----------------------9---------------------------------|
E|--------------------------------------------------------|#/2t2##/2t1#
Composição: Victor ChavesColaboração e revisão: Gustavo Oliveirabruno santosVictor BragaMichel Goularte mais 7