The Final Countdown

Europe

A5
134
577XXX
B5
134
X244XX
C#5
134
X466XX
D5
134
X577XX
E/G#
1234
4764XX
E5
12
022XXX
F#
234
244322
F#5
134
244XXX
G#
234
431114
G5
134
355XXX
Tom: G
Introdução: F#5  D5  B5  E5
            F#5  D5  B5  E5
            F#5  (Riff 1)  D5  C#5
            F#5

(Riff 1)

#1t1#   G# A5
#1t2#E|------------------------------------------|
B|------------------------------------------|
G|----2-------------------------------------|
D|----2-------------------------------------|
A|----0-------------------------------------|
E|-4~---4-2-0-------------------------------|#/1t2##/1t1#

(Riff 2)

#2t1#   G#
#2t2#E|------------------------------------------|
B|------------------------------------------|
G|------------------------------------------|
D|------------------------------------------|
A|------------------------------------------|
E|-4~---------------------------------------|#/2t2##/2t1#


Primeira Parte:

F#5
    We're leaving together
                B5
But still it's farewell
F#5
    And maybe we'll come back
    (Riff 2)   A5
To earth, who can tell?
D5                   E5
   I guess there is no one to blame
A5        E/G#     F#5    E5       D5
   We're leaving ground (leaving ground)
                  C#5               E5
Will things ever be the same again?


Primeiro Refrão:
                F#5      D5  B5  E5
It's the final countdown
           F#5      D5  B5  E5
The final countdown


Segunda Parte:

F#5
    We're heading for Venus (Venus)
               B5
And still we stand tall
F#5
    'Cause maybe they've seen us (seen us)
     (Riff 2)  A5
And welcome us    all, yeah
D5               E5
   With so many light years to go
A5       E/G#        F#5    E5    D5
   And things to be found (to be found)
                    C#5             E5
I'm sure that we'll all miss her so


Segundo Refrão:

                F#5      D5  B5  E5
It's the final countdown
           F#5      D5  B5  E5
The final countdown
           F#5       (Riff 1)         D5  C#5
The final countdown (final countdown)


Base do Solo: B5  A5  D5  G5  (Riff 3)
              E5  A5  B5  F#5
              B5  A5  D5  G5  (Riff 3)
              E5  A5  B5  C#5

(Riff 3)

#3t1#   G5 F#
#3t2#E|------------------------------------------|
B|------------------------------------------|
G|------------------------------------------|
D|-5----------------------------------------|
A|-5----------------------------------------|
E|-3--2~------------------------------------|#/3t2##/3t1#


Solo:

(Guitarra 1)

(Parte 1)

#4t1##4t2#E|----10-14p10----10-14p10----10-14p10----10-14p10----|
B|-12----------12----------12----------12-------------|
G|----------------------------------------------------|
D|----------------------------------------------------|
A|----------------------------------------------------|
E|----------------------------------------------------|#/4t2##/4t1#

#5t1##5t2#E|----10-14p10-------12-15p12----12-15p12----12-15p12-|
B|-12----------12-14----------14----------14----------|
G|----------------------------------------------------|
D|----------------------------------------------------|
A|----------------------------------------------------|
E|----------------------------------------------------|#/5t2##/5t1#

#6t1##6t2#E|----12-15p12----12-15p12-------14-17p14----14-17p14-|
B|-14----------14----------14-15----------15----------|
G|----------------------------------------------------|
D|----------------------------------------------------|
A|----------------------------------------------------|
E|----------------------------------------------------|#/6t2##/6t1#

#7t1##7t2#E|----14-17p14----14-17p14----14-17\------------------|
B|-15----------15----------15-------------------------|
G|----------------------------------------------------|
D|----------------------------------------------------|
A|----------------------------------------------------|
E|----------------------------------------------------|#/7t2##/7t1#


#8t1##8t2#E|---7-10p7---7-10p7------7---------------------------|
B|-8--------8--------8-10---10-8-7-8-7----------------|
G|-------------------------------------9-7-9~~--------|
D|----------------------------------------------------|
A|----------------------------------------------------|
E|----------------------------------------------------|#/8t2##/8t1#

(Parte 2)

#9t1##9t2#E|----------------------------------------------------|
B|-8-8-8-7h8p7----------------------------------------|
G|-------------9-7--7---6---4---2---------------------|
D|----------------------------------------------------|
A|----------------------------------------------------|
E|----------------------------------------------------|#/9t2##/9t1#

(Parte 3)

#10t1##10t2#E|---------7-------------7----------------------------|
B|-10b12~----7-10----------10p7-9p6-7-----------------|
G|----------------9b11r---------------7-10-9p7---9----|
D|---------------------------------------------9------|
A|----------------------------------------------------|
E|----------------------------------------------------|#/10t2##/10t1#

#11t1##11t2#E|----------------------------------------------------|
B|----------------------------------------------------|
G|---7h9~---------------------------------------------|
D|-9--------------------------------------------------|
A|----------------------------------------------------|
E|----------------------------------------------------|#/11t2##/11t1#

(Parte 4)

#12t1##12t2#E|----10-14p10----10-14p10----10-14p10----10-14p10----|
B|-12----------12----------12----------12-------------|
G|----------------------------------------------------|
D|----------------------------------------------------|
A|----------------------------------------------------|
E|----------------------------------------------------|#/12t2##/12t1#

#13t1##13t2#E|----10-14p10-------12-15p12----12-15p12----12-15p12-|
B|-12----------12-14----------14----------14----------|
G|----------------------------------------------------|
D|----------------------------------------------------|
A|----------------------------------------------------|
E|----------------------------------------------------|#/13t2##/13t1#

#14t1##14t2#E|----12-15p12----12-15p12-------14-17p14----14-17p14-|
B|-14----------14----------14-15----------15----------|
G|----------------------------------------------------|
D|----------------------------------------------------|
A|----------------------------------------------------|
E|----------------------------------------------------|#/14t2##/14t1#

#15t1##15t2#E|----14-17p14----14-17p14----14-17\------------------|
B|-15----------15----------15-------------------------|
G|----------------------------------------------------|
D|----------------------------------------------------|
A|----------------------------------------------------|
E|----------------------------------------------------|#/15t2##/15t1#

#16t1##16t2#E|---7-10p7---7-10p7------7---------------------------|
B|-8--------8--------8-10---10-8-7-10-10-8-7----------|
G|-------------------------------------------9~~------|
D|----------------------------------------------------|
A|----------------------------------------------------|
E|----------------------------------------------------|#/16t2##/16t1#

(Parte 5)

#17t1##17t2#E|----------------------------------------------------|
B|-8-8-8-7h8p7-----10b12r10--------7------------------|
G|-------------9-7-----------7--9--9b11~~-------------|
D|----------------------------------------------------|
A|----------------------------------------------------|
E|----------------------------------------------------|#/17t2##/17t1#

#18t1##18t2#E|----------------------------------------------------|
B|-9------12--9---------------------------------------|
G|-11b13------11b13r~---------------------------------|
D|----------------------------------------------------|
A|----------------------------------------------------|
E|----------------------------------------------------|#/18t2##/18t1#


(Guitarra 2)

(Parte 1)

#19t1##19t2#E|----14-17p14----14-17p14----14-17p14----14-17p14----|
B|-15----------15----------15----------15-------------|
G|----------------------------------------------------|
D|----------------------------------------------------|
A|----------------------------------------------------|
E|----------------------------------------------------|#/19t2##/19t1#

#20t1##20t2#E|----14-17p14-------15-19p15----15-19p15----15-19p15-|
B|-15----------15-17----------17----------17----------|
G|----------------------------------------------------|
D|----------------------------------------------------|
A|----------------------------------------------------|
E|----------------------------------------------------|#/20t2##/20t1#

#21t1##21t2#E|----15-19p15----15-19p15-------17-21p17----17-21p17-|
B|-17----------17----------17-19----------19----------|
G|----------------------------------------------------|
D|----------------------------------------------------|
A|----------------------------------------------------|
E|----------------------------------------------------|#/21t2##/21t1#

#22t1##22t2#E|----17-21p17----17-21p17----17-21\------------------|
B|-19----------19----------19-------------------------|
G|----------------------------------------------------|
D|----------------------------------------------------|
A|----------------------------------------------------|
E|----------------------------------------------------|#/22t2##/22t1#

#23t1##23t2#E|----10-14p10----10-14p10-------10-------------------|
B|-12----------12----------12-14----14-12-10-14-12-10-|
G|------------------------------------------------~---|
D|----------------------------------------------------|
A|----------------------------------------------------|
E|----------------------------------------------------|#/23t2##/23t1#

#24t1##24t2#E|----------------------------------------------------|
B|----------------------------------------------------|
G|-11-12~---------------------------------------------|
D|----------------------------------------------------|
A|----------------------------------------------------|
E|----------------------------------------------------|#/24t2##/24t1#

(Parte 4)

#25t1##25t2#E|----14-17p14----14-17p14----14-17p14----14-17p14----|
B|-15----------15----------15----------15-------------|
G|----------------------------------------------------|
D|----------------------------------------------------|
A|----------------------------------------------------|
E|----------------------------------------------------|#/25t2##/25t1#

#26t1##26t2#E|----14-17p14-------15-19p15----15-19p15----15-19p15-|
B|-15----------15-17----------17----------17----------|
G|----------------------------------------------------|
D|----------------------------------------------------|
A|----------------------------------------------------|
E|----------------------------------------------------|#/26t2##/26t1#

#27t1##27t2#E|----15-19p15----15-19p15-------17-21p17----17-21p17-|
B|-17----------17----------17-19----------19----------|
G|----------------------------------------------------|
D|----------------------------------------------------|
A|----------------------------------------------------|
E|----------------------------------------------------|#/27t2##/27t1#

#28t1##28t2#E|----17-21p17----17-21p17----17-21\------------------|
B|-19----------19----------19-------------------------|
G|----------------------------------------------------|
D|----------------------------------------------------|
A|----------------------------------------------------|
E|----------------------------------------------------|#/28t2##/28t1#

#29t1##29t2#E|----10-14p10----10-14p10-------10-------------------|
B|-12----------12----------12-14----14-12-10-14-14-12-|
G|------------------------------------------------~---|
D|----------------------------------------------------|
A|----------------------------------------------------|
E|----------------------------------------------------|#/29t2##/29t1#

#30t1##30t2#E|----------------------------------------------------|
B|-10-------------------------------------------------|
G|----12~---------------------------------------------|
D|----------------------------------------------------|
A|----------------------------------------------------|
E|----------------------------------------------------|#/30t2##/30t1#


Ponte: F#5  ( C#5  D5 )  B5  ( D5  E5 )
       F#5  ( C#5  D5 )  B5  ( D5  E5 )

           F#5      (Riff 1)  D5  C#5
The final countdown


Terceiro Refrão:

                F#5      D5  B5  E5
It's the final countdown
           F#5      D5  B5  E5
The final countdown
           F#5       (Riff 1)         D5  C#5
The final countdown (final countdown)

                F#5       D5
It's the final countdown
                 B5    E5
We're leaving together
            F#5       D5
(The final countdown)
                    B5  E5
We'll all miss her so
                 F#5       (Riff 1)        D5  C#5
It's the final countdown (final countdown)
                F#5
It's the final countdown
Composição: Joey TempestColaboração e revisão: Vinícius DiasRomulo FariaLíncolinJoãoe mais 2
Videoaula The Final Countdown (aula de guitarra)