A
123
X02220
A4
123
X02230
Bm
234
X24432
D/F#
1234
2X0232
E
123
022100
E4
123
022200
Em
12
022000
F#m
34
244222
G
123
320003
Tom: G
[Intro] Bm  A  G  D/F#  Em  F#m  Bm

 Bm            G
Tanta amargura escondi
   Bm              G
O medo de não acertar
 Bm               G
Sonhos coloridos destruí
    Bm                     G
Que eu não quero mais lembrar
     Em
Não vou mais chorar
        A4     A
Foi o que decidi
     Em
Não vou mais sofrer
      G    A4  A
Pra que viver  assim

Bm
   Com imagens da infância
     G
Comecei a chorar
Bm
   Caí na caixa das lembranças
     G      A
Lembrei do Teu olhar
Bm
   Enchi meus olhos de esperança
     G
Comecei a cantar
Bm
   Entrei de vez naquela dança
     Em    A
Pra nunca mais voltar

 Bm            G
Cura-me em minhas lembranças
 Bm           G
Cura o meu altar
 Bm            G
Cura-me, sou Tua criança
      Em      D/F#      Bm
Cura-me, cura-me, cura-me
      G      A     E4  E
Cura-me, Senhor Jesus
      G        A        Bm
Cura-me, cura-me, cura-me
      G      A     E
Cura-me, Senhor Jesus

Bm
   Com imagens da infância
     G
Comecei a chorar
Bm
   Caí na caixa das lembranças
     G      A
Lembrei do Teu olhar
Bm
   Enchi meus olhos de esperança
     G
Comecei a cantar
Bm
   Entrei de vez naquela dança
     Em    A
Pra nunca mais voltar

 Bm            G
Cura-me em minhas lembranças
 Bm           G
Cura o meu altar
 Bm            G
Cura-me, sou Tua criança
      Em      D/F#      Bm
Cura-me, cura-me, cura-me
      G      A     E4  E
Cura-me, Senhor Jesus
      G        A        Bm
Cura-me, cura-me, cura-me
      G      A     E
Cura-me, Senhor Jesus

[Solo] G  A  Bm  G  A  E

#1t1##1t2#E|--------------------------------------------------|
B|-10/12-12-14-14-15-15--13/15-17-17b19-17-15-17-15-|
G|--------------------------------------------------|
D|--------------------------------------------------|
A|--------------------------------------------------|
E|--------------------------------------------------|#/1t2##/1t1#

#2t1##2t2#E|-----------17-------17-------15-17-17b19-17b19r---|
B|-----17b19----17b19----17-------------------------|
G|--16----------------------------------------------|
D|--------------------------------------------------|
A|--------------------------------------------------|
E|--------------------------------------------------|#/2t2##/2t1#

#3t1##3t2#E|--------------------------------------------------|
B|--19b21-17----17--15b17------15b17----------------|
G|-----------19------------16---------16------------|
D|--------------------------------------------------|
A|--------------------------------------------------|
E|--------------------------------------------------|#/3t2##/3t1#

 Bm            G
Cura-me em minhas lembranças
 Bm           G
Cura o meu altar
 Bm            G
Cura-me, sou Tua criança
      Em      D/F#      Bm
Cura-me, cura-me, cura-me
      G      A     E4  E
Cura-me, Senhor Jesus
      G        A        Bm
Cura-me, cura-me, cura-me
      G      A     E
Cura-me, Senhor Jesus

[Final] G  A  Bm
Composição: Fernanda BrumColaboração e revisão: Seba MendesJoel FerreiraLucas Kappaundeivid diase mais 8